  0
SECTION
  2
HEADER
  9
$ACADVER
  1
AC1009
  9
$INSBASE
 10
0
 20
0
 30
0
  9
$EXTMIN
 10
0
 20
0
  9
$EXTMAX
 10
1485
 20
1050
  9
$LIMMIN
 10
0
 20
0
  9
$LIMMAX
 10
1485
 20
1050
  9
$LTSCALE
 40
5
  0
ENDSEC
  0
SECTION
  2
TABLES
  0
TABLE
  2
LTYPE
 70
     9
  0
LTYPE
  2
CONTINUOUS
 70
    64
  3
実線
 72
    65
 73
     0
 40
0.0
  0
LTYPE
  2
DASHED1
 70
    64
  3
--  --  --  --  --  --  --  --  
 72
    65
 73
     2
 40
2.5
 49
1.25
 49
-1.25
  0
LTYPE
  2
DASHED2
 70
    64
  3
----    ----    ----    ----    
 72
    65
 73
     2
 40
5.0
 49
2.5
 49
-2.5
  0
LTYPE
  2
DASHED3
 70
    64
  3
------  ------  ------  ------  
 72
    65
 73
     2
 40
5.0
 49
3.75
 49
-1.25
  0
LTYPE
  2
CENTER1
 70
    64
  3
----- - ----- - ----- - ----- - 
 72
    65
 73
     4
 40
10.0
 49
6.25
 49
-1.25
 49
1.25
 49
-1.25
  0
LTYPE
  2
CENTER2
 70
    64
  3
----------  --  ----------  --  
 72
    65
 73
     4
 40
20.0
 49
12.5
 49
-2.5
 49
2.5
 49
-2.5
  0
LTYPE
  2
PHANTOM1
 70
    64
  3
--- - - --- - - --- - - --- - - 
 72
    65
 73
     6
 40
10.0
 49
3.25
 49
-1.25
 49
1.25
 49
-1.25
 49
1.25
 49
-1.25
  0
LTYPE
  2
PHANTOM2
 70
    64
  3
--------  -  -  --------  -  -  
 72
    65
 73
     6
 40
20.0
 49
10.0
 49
-2.5
 49
1.25
 49
-2.5
 49
1.25
 49
-2.5
  0
LTYPE
  2
DOT
 70
    64
  3
-   -   -   -   -   -   -   -   
 72
    65
 73
     2
 40
2.5
 49
0.625
 49
-1.875
  0
LTYPE
  2
DUMMY
 70
    64
  3
ダミー
 72
    65
 73
     0
 40
0.0
  0
LTYPE
  2
RAND1
 70
    64
  3
ランダム線1
 72
    65
 73
     4
 40
10.0
 49
1.0
 49
-2.0
 49
3.0
 49
-4.0
  0
LTYPE
  2
RAND2
 70
    64
  3
ランダム線2
 72
    65
 73
     4
 40
14.0
 49
2.0
 49
-3.0
 49
4.0
 49
-5.0
  0
LTYPE
  2
RAND3
 70
    64
  3
ランダム線3
 72
    65
 73
     4
 40
18.0
 49
3.0
 49
-4.0
 49
5.0
 49
-6.0
  0
LTYPE
  2
RAND4
 70
    64
  3
ランダム線4
 72
    65
 73
     4
 40
22.0
 49
4.0
 49
-5.0
 49
6.0
 49
-7.0
  0
LTYPE
  2
RAND5
 70
    64
  3
ランダム線5
 72
    65
 73
     4
 40
26.0
 49
5.0
 49
-6.0
 49
7.0
 49
-8.0
  0
LTYPE
  2
LONG1
 70
    64
  3
----------  --  ----------  --  
 72
    65
 73
     4
 40
40.0
 49
32.5
 49
-2.5
 49
2.5
 49
-2.5
  0
LTYPE
  2
LONG2
 70
    64
  3
--------  -  -  --------  -  -  
 72
    65
 73
     6
 40
40.0
 49
30.0
 49
-2.5
 49
1.25
 49
-2.5
 49
1.25
 49
-2.5
  0
LTYPE
  2
LONG3
 70
    64
  3
+++++++++++++++..+++++++++++++++
 72
    65
 73
     2
 40
40.0
 49
37.5
 49
-2.5
  0
LTYPE
  2
LONG4
 70
    64
  3
+++++++++++++++..+++++++++++++++
 72
    65
 73
     2
 40
80.0
 49
75.0
 49
-5.0
  0
LTYPE
  2
LONG5
 70
    64
  3
----------  --  ----------  --  
 72
    65
 73
     4
 40
60.0
 49
37.5
 49
-7.5
 49
7.5
 49
-7.5
  0
LTYPE
  2
dashed
 70
   64
  3
-------   -------------   ------
 72
   65
 73
    2
 40
7.5
 49
6
 49
-1.5
  0
LTYPE
  2
dashed_spaced
 70
   64
  3
----        --------        ----
 72
   65
 73
    2
 40
12
 49
6
 49
-6
  0
LTYPE
  2
long_dashed_dotted
 70
   64
  3
------------- --- --------------
 72
   65
 73
    4
 40
15.25
 49
12
 49
-1.5
 49
0.25
 49
-1.5
  0
LTYPE
  2
long_dashed_double-dotted
 70
   64
  3
----------- --- --- ------------
 72
   65
 73
    6
 40
17
 49
12
 49
-1.5
 49
0.25
 49
-1.5
 49
0.25
 49
-1.5
  0
LTYPE
  2
long_dashed_triplicate-dotted
 70
   64
  3
--------- --- --- --- ----------
 72
   65
 73
    8
 40
18.75
 49
12
 49
-1.5
 49
0.25
 49
-1.5
 49
0.25
 49
-1.5
 49
0.25
 49
-1.5
  0
LTYPE
  2
dotted
 70
   64
  3
   -       -       -       -    
 72
   65
 73
    2
 40
1.75
 49
0.25
 49
-1.5
  0
LTYPE
  2
chain
 70
   64
  3
-------------- -- --------------
 72
   65
 73
    4
 40
18.5
 49
12
 49
-1.5
 49
3.5
 49
-1.5
  0
LTYPE
  2
chain_double_dash
 70
   64
  3
------------ -- -- -------------
 72
   65
 73
    6
 40
23.5
 49
12
 49
-1.5
 49
3.5
 49
-1.5
 49
3.5
 49
-1.5
  0
LTYPE
  2
dashed_dotted
 70
   64
  3
-----------     -     ----------
 72
   65
 73
    4
 40
9.25
 49
6
 49
-1.5
 49
0.25
 49
-1.5
  0
LTYPE
  2
double-dashed_dotted
 70
   64
  3
------   -----------   -   -----
 72
   65
 73
    6
 40
16.75
 49
6
 49
-1.5
 49
6
 49
-1.5
 49
0.25
 49
-1.5
  0
LTYPE
  2
dashed_double-dotted
 70
   64
  3
---------    -    -    ---------
 72
   65
 73
    6
 40
11
 49
6
 49
-1.5
 49
0.25
 49
-1.5
 49
0.25
 49
-1.5
  0
LTYPE
  2
double-dashed_double-dotted
 70
   64
  3
-----   ---------   -   -   ----
 72
   65
 73
    8
 40
18.5
 49
6
 49
-1.5
 49
6
 49
-1.5
 49
0.25
 49
-1.5
 49
0.25
 49
-1.5
  0
LTYPE
  2
dashed_triplicate-dotted
 70
   64
  3
-------    -    -    -    ------
 72
   65
 73
    8
 40
12.75
 49
6
 49
-1.5
 49
0.25
 49
-1.5
 49
0.25
 49
-1.5
 49
0.25
 49
-1.5
  0
LTYPE
  2
double-dashed_triplicate-dotted
 70
   64
  3
-----  ---------  -  -  -  -----
 72
   65
 73
   10
 40
20.25
 49
6
 49
-1.5
 49
6
 49
-1.5
 49
0.25
 49
-1.5
 49
0.25
 49
-1.5
 49
0.25
 49
-1.5
  0
LTYPE
  2
undefined
 70
   64
  3
--------------------------------
 72
   65
 73
    0
 40
0
  0
LTYPE
  2
_
 70
   64
  3
                                
 72
   65
 73
    0
 40
0
  0
LTYPE
  2
__18
 70
   64
  3
                                
 72
   65
 73
    0
 40
0
  0
LTYPE
  2
__19
 70
   64
  3
                                
 72
   65
 73
    0
 40
0
  0
LTYPE
  2
__20
 70
   64
  3
                                
 72
   65
 73
    0
 40
0
  0
LTYPE
  2
__21
 70
   64
  3
                                
 72
   65
 73
    0
 40
0
  0
LTYPE
  2
__22
 70
   64
  3
                                
 72
   65
 73
    0
 40
0
  0
LTYPE
  2
__23
 70
   64
  3
                                
 72
   65
 73
    0
 40
0
  0
LTYPE
  2
__24
 70
   64
  3
                                
 72
   65
 73
    0
 40
0
  0
LTYPE
  2
__25
 70
   64
  3
                                
 72
   65
 73
    0
 40
0
  0
LTYPE
  2
__26
 70
   64
  3
                                
 72
   65
 73
    0
 40
0
  0
LTYPE
  2
__27
 70
   64
  3
                                
 72
   65
 73
    0
 40
0
  0
LTYPE
  2
__28
 70
   64
  3
                                
 72
   65
 73
    0
 40
0
  0
LTYPE
  2
__29
 70
   64
  3
                                
 72
   65
 73
    0
 40
0
  0
LTYPE
  2
__30
 70
   64
  3
                                
 72
   65
 73
    0
 40
0
  0
LTYPE
  2
__31
 70
   64
  3
                                
 72
   65
 73
    0
 40
0
  0
LTYPE
  2
__32
 70
   64
  3
                                
 72
   65
 73
    0
 40
0
  0
ENDTAB
  0
TABLE
  2
STYLE
  5
3
100
AcDbSymbolTable
 70
     1
  0
STYLE
  5
10
100
AcDbSymbolTableRecord
100
AcDbTextStyleTableRecord
  2
STANDARD
 70
     0
 40
0.0
 41
1.0
 50
0.0
 71
     0
 42
0.2
  3
txt
  4
bigfont.shx
  0
STYLE
  5
26
100
AcDbSymbolTableRecord
100
AcDbTextStyleTableRecord
  2
TATEGAKI
 70
    68
 40
0.0
 41
1.0
 50
0.0
 71
     0
 42
1.0
  3
txt
  4
bigfont.shx
  0
ENDTAB
  0
TABLE
  2
LAYER
 70
    8
  0
LAYER
  2
_0-0_
 70
   64
 62
    7
  6
CONTINUOUS
  0
LAYER
  2
_0-1_
 70
   64
 62
    7
  6
CONTINUOUS
  0
LAYER
  2
_0-2_
 70
   64
 62
    7
  6
CONTINUOUS
  0
LAYER
  2
_0-3_
 70
   64
 62
    7
  6
CONTINUOUS
  0
LAYER
  2
_0-4_
 70
   64
 62
    7
  6
CONTINUOUS
  0
LAYER
  2
_0-5_
 70
   64
 62
    7
  6
CONTINUOUS
  0
LAYER
  2
_0-f_
 70
   64
 62
    7
  6
CONTINUOUS
  0
LAYER
  2
ADD_LINE
 70
   64
 62
    7
  6
CONTINUOUS
  0
ENDTAB
  0
ENDSEC
  0
SECTION
  2
BLOCKS
  0
ENDSEC
  0
SECTION
  2
ENTITIES
  0
TEXT
  8
_0-0_
 62
    7
 10
329.8675134594813
 20
348.29999999999995
 40
25
 41
1
 50
0
  1
３
  0
CIRCLE
  8
_0-0_
  6
CONTINUOUS
 62
    7
 10
342.3675134594813
 20
360.79999999999995
 40
15
  0
LINE
  8
_0-0_
  6
CONTINUOUS
 62
    7
 10
315
 20
410.79999999999995
 11
336.3675134594813
 21
373.79038105676659
  0
LINE
  8
_0-1_
  6
CONTINUOUS
 62
    7
 10
719.70000000000005
 20
879.20000000000005
 11
719.70000000000005
 21
842.92641851103099
  0
LINE
  8
_0-3_
  6
CONTINUOUS
 62
    7
 10
358.50000000000011
 20
410.79999999999995
 11
181.50000000000006
 21
410.79999999999995
  0
LINE
  8
_0-3_
  6
DASHED2
 62
    4
 10
358.50000000000011
 20
411.59999999999997
 11
181.50000000000006
 21
411.59999999999997
  0
LINE
  8
_0-1_
  6
CONTINUOUS
 62
    7
 10
718.89999999999998
 20
880
 11
718.89999999999998
 21
843.27491227854182
  0
LINE
  8
_0-2_
  6
CONTINUOUS
 62
    7
 10
916.59999999999991
 20
878.5
 11
721.20000000000005
 21
878.5
  0
LINE
  8
_0-1_
  6
CONTINUOUS
 62
    7
 10
718.89999999999998
 20
880
 11
918.90000000000009
 21
880
  0
LINE
  8
_0-1_
  6
CONTINUOUS
 62
    7
 10
719.70000000000005
 20
879.20000000000005
 11
918.10000000000002
 21
879.20000000000005
  0
LINE
  8
_0-2_
  6
DASHED2
 62
    4
 10
915.89289321881347
 20
877.70000000000005
 11
721.9071067811866
 21
877.70000000000005
  0
LINE
  8
_0-2_
  6
CONTINUOUS
 62
    7
 10
906.69289321881342
 20
868.5
 11
731.10710678118664
 21
868.5
  0
LINE
  8
_0-2_
  6
CONTINUOUS
 62
    7
 10
907.40000000000009
 20
631.5
 11
907.40000000000009
 21
867.79289321881356
  0
LINE
  8
_0-1_
  6
CONTINUOUS
 62
    7
 10
718.89999999999998
 20
630
 11
918.90000000000009
 21
630
  0
LINE
  8
_0-1_
  6
CONTINUOUS
 62
    7
 10
719.70000000000005
 20
630.79999999999995
 11
918.10000000000002
 21
630.79999999999995
  0
LINE
  8
_0-1_
  6
CONTINUOUS
 62
    7
 10
918.90000000000009
 20
880
 11
918.90000000000009
 21
630
  0
LINE
  8
_0-1_
  6
CONTINUOUS
 62
    7
 10
918.10000000000002
 20
879.20000000000005
 11
918.10000000000002
 21
630.79999999999995
  0
LINE
  8
_0-2_
  6
CONTINUOUS
 62
    7
 10
917.40000000000009
 20
632.30000000000007
 11
917.40000000000009
 21
877.70000000000005
  0
LINE
  8
_0-2_
  6
DASHED2
 62
    4
 10
916.59999999999991
 20
632.30000000000007
 11
916.59999999999991
 21
876.99289321881338
  0
LINE
  8
_0-3_
  6
DASHED2
 62
    4
 10
730.40000000000009
 20
633.10000000000002
 11
907.40000000000009
 21
633.10000000000002
  0
LINE
  8
_0-2_
  6
CONTINUOUS
 62
    7
 10
730.40000000000009
 20
631.5
 11
730.40000000000009
 21
867.79289321881356
  0
LINE
  8
_0-2_
  6
DASHED2
 62
    4
 10
721.20000000000005
 20
632.30000000000007
 11
721.20000000000005
 21
876.99289321881338
  0
LINE
  8
_0-2_
  6
CONTINUOUS
 62
    7
 10
720.40000000000009
 20
632.30000000000007
 11
720.40000000000009
 21
877.70000000000005
  0
LINE
  8
_0-1_
  6
CONTINUOUS
 62
    7
 10
719.70000000000005
 20
667.07358148896901
 11
719.70000000000005
 21
630.79999999999995
  0
LINE
  8
_0-1_
  6
CONTINUOUS
 62
    7
 10
718.89999999999998
 20
666.72508772145829
 11
718.89999999999998
 21
630
  0
TEXT
  8
_0-0_
 62
    7
 10
968.90000000000009
 20
708.55404693895457
 40
17.5
 41
1
 50
0
  1
4-φ6穴(取付穴)
  0
LINE
  8
_0-f_
  6
CONTINUOUS
 62
    7
 10
889.99807621135346
 20
663.00000000000011
 11
968.90000000000009
 21
708.55404693895457
  0
LINE
  8
_0-f_
  6
CONTINUOUS
 62
    7
 10
889.99807621135324
 20
663
 11
904.48696360568931
 21
666.88228567653778
  0
LINE
  8
_0-f_
  6
CONTINUOUS
 62
    7
 10
889.99807621135324
 20
663
 11
900.60467792915142
 21
673.6066017177983
  0
LINE
  8
_0-0_
  6
CONTINUOUS
 62
    7
 10
968.90000000000009
 20
708.55404693895457
 11
1097.12282660237
 21
708.55404693895457
  0
LINE
  8
_0-2_
  6
CONTINUOUS
 62
    7
 10
907.40000000000009
 20
632.30000000000007
 11
917.40000000000009
 21
632.30000000000007
  0
LINE
  8
_0-3_
  6
CENTER2
 62
    4
 10
876.40000000000009
 20
661.5
 11
898.40000000000009
 21
661.5
  0
LINE
  8
_0-3_
  6
CENTER2
 62
    4
 10
887.40000000000009
 20
650.5
 11
887.40000000000009
 21
672.5
  0
CIRCLE
  8
_0-3_
  6
CONTINUOUS
 62
    7
 10
887.40000000000009
 20
661.5
 40
3
  0
LINE
  8
_0-2_
  6
CONTINUOUS
 62
    7
 10
907.40000000000009
 20
631.5
 11
916.59999999999991
 21
631.5
  0
ARC
  8
_0-2_
  6
CONTINUOUS
 62
    7
 10
916.59999999999991
 20
632.30000000000007
 40
0.8
 50
270
 51
0
  0
LINE
  8
_0-0_
  6
CONTINUOUS
 62
    2
 10
917.40000000000009
 20
915
 11
937.40000000000009
 21
915
  0
LINE
  8
_0-0_
  6
CONTINUOUS
 62
    2
 10
867.40000000000009
 20
915
 11
887.40000000000009
 21
915
  0
LINE
  8
_0-0_
  6
CONTINUOUS
 62
    2
 10
917.40000000000009
 20
915
 11
887.40000000000009
 21
915
  0
TEXT
  8
_0-0_
 62
    7
 10
889.27500000000009
 20
917.5
 40
25
 41
1
 50
0
  1
30
  0
LINE
  8
_0-0_
  6
CONTINUOUS
 62
    2
 10
887.40000000000009
 20
920
 11
887.40000000000009
 21
864.5
  0
LINE
  8
_0-0_
  6
CONTINUOUS
 62
    2
 10
917.40000000000009
 20
920
 11
917.40000000000009
 21
882.70000000000005
  0
LINE
  8
_0-0_
  6
CONTINUOUS
 62
    2
 10
887.40000000000009
 20
915
 11
872.9111126056639
 21
911.11771432346222
  0
LINE
  8
_0-0_
  6
CONTINUOUS
 62
    2
 10
887.40000000000009
 20
915
 11
872.9111126056639
 21
918.88228567653778
  0
LINE
  8
_0-0_
  6
CONTINUOUS
 62
    2
 10
917.40000000000009
 20
915
 11
931.88888739433594
 21
911.11771432346222
  0
LINE
  8
_0-0_
  6
CONTINUOUS
 62
    2
 10
917.40000000000009
 20
915
 11
931.88888739433594
 21
918.88228567653778
  0
LINE
  8
_0-3_
  6
CENTER2
 62
    4
 10
876.40000000000009
 20
848.5
 11
898.40000000000009
 21
848.5
  0
LINE
  8
_0-3_
  6
CENTER2
 62
    4
 10
887.40000000000009
 20
837.5
 11
887.40000000000009
 21
859.5
  0
CIRCLE
  8
_0-3_
  6
CONTINUOUS
 62
    7
 10
887.40000000000009
 20
848.5
 40
3
  0
LINE
  8
_0-2_
  6
CONTINUOUS
 62
    7
 10
906.69289321881342
 20
868.5
 11
916.64644660940667
 21
878.45355339059324
  0
LINE
  8
_0-2_
  6
CONTINUOUS
 62
    7
 10
907.40000000000009
 20
867.79289321881356
 11
917.39514143390977
 21
877.78803465272313
  0
ARC
  8
_0-2_
  6
CONTINUOUS
 62
    7
 10
916.59999999999991
 20
877.70000000000005
 40
0.8
 50
0
 51
90.000000000000014
  0
LINE
  8
_0-0_
  6
CONTINUOUS
 62
    2
 10
681.80000000000007
 20
631.5
 11
681.80000000000007
 21
611.5
  0
LINE
  8
_0-0_
  6
CONTINUOUS
 62
    2
 10
681.80000000000007
 20
661.5
 11
681.80000000000007
 21
681.5
  0
LINE
  8
_0-0_
  6
CONTINUOUS
 62
    2
 10
681.80000000000007
 20
661.5
 11
681.80000000000007
 21
631.5
  0
TEXT
  8
_0-0_
 62
    7
 10
679.30000000000007
 20
633.375
 40
25
 41
1
 50
90
  1
30
  0
LINE
  8
_0-0_
  6
CONTINUOUS
 62
    2
 10
676.80000000000007
 20
631.5
 11
716.20000000000005
 21
631.5
  0
LINE
  8
_0-0_
  6
CONTINUOUS
 62
    2
 10
676.80000000000007
 20
661.5
 11
734.39999999999998
 21
661.5
  0
LINE
  8
_0-0_
  6
CONTINUOUS
 62
    2
 10
681.80000000000007
 20
631.5
 11
685.68228567653796
 21
617.01111260566404
  0
LINE
  8
_0-0_
  6
CONTINUOUS
 62
    2
 10
681.80000000000007
 20
631.5
 11
677.91771432346218
 21
617.01111260566404
  0
LINE
  8
_0-0_
  6
CONTINUOUS
 62
    2
 10
681.80000000000007
 20
661.5
 11
685.68228567653796
 21
675.98888739433607
  0
LINE
  8
_0-0_
  6
CONTINUOUS
 62
    2
 10
681.80000000000007
 20
661.5
 11
677.91771432346218
 21
675.98888739433607
  0
LINE
  8
_0-2_
  6
CONTINUOUS
 62
    7
 10
720.40000000000009
 20
632.30000000000007
 11
730.40000000000009
 21
632.30000000000007
  0
LINE
  8
_0-3_
  6
CENTER2
 62
    4
 10
739.39999999999998
 20
661.5
 11
761.40000000000009
 21
661.5
  0
LINE
  8
_0-3_
  6
CENTER2
 62
    4
 10
750.40000000000009
 20
650.5
 11
750.40000000000009
 21
672.5
  0
CIRCLE
  8
_0-3_
  6
CONTINUOUS
 62
    7
 10
750.40000000000009
 20
661.5
 40
3
  0
LINE
  8
_0-3_
  6
CONTINUOUS
 62
    7
 10
730.40000000000009
 20
632.30000000000007
 11
910.39999999999986
 21
632.30000000000007
  0
LINE
  8
_0-2_
  6
CONTINUOUS
 62
    7
 10
721.20000000000005
 20
631.5
 11
730.40000000000009
 21
631.5
  0
ARC
  8
_0-2_
  6
CONTINUOUS
 62
    7
 10
721.20000000000005
 20
632.30000000000007
 40
0.8
 50
180
 51
270
  0
LINE
  8
_0-1_
  6
CONTINUOUS
 62
    7
 10
719.70000000000005
 20
817.07358148896901
 11
719.70000000000005
 21
692.92641851103099
  0
LINE
  8
_0-1_
  6
CONTINUOUS
 62
    7
 10
718.89999999999998
 20
816.72508772145829
 11
718.89999999999998
 21
693.27491227854171
  0
ARC
  8
_0-4_
  6
CONTINUOUS
 62
    7
 10
718.60000000000002
 20
668.50625000000014
 40
1.8062500000000001
 50
213.85502600000001
 51
326.14497399999999
  0
LINE
  8
_0-4_
  6
CONTINUOUS
 62
    7
 10
719.70000000000005
 20
674.5
 11
716.80000000000007
 21
674.5
  0
LINE
  8
_0-4_
  6
CONTINUOUS
 62
    7
 10
719.70000000000005
 20
685.50000000000011
 11
716.80000000000007
 21
685.50000000000011
  0
LINE
  8
_0-4_
  6
CONTINUOUS
 62
    7
 10
720.40000000000009
 20
667.5
 11
716.80000000000007
 21
667.5
  0
LINE
  8
_0-4_
  6
CONTINUOUS
 62
    7
 10
720.40000000000009
 20
692.5
 11
720.40000000000009
 21
667.5
  0
LINE
  8
_0-4_
  6
CONTINUOUS
 62
    7
 10
720.40000000000009
 20
692.5
 11
716.80000000000007
 21
692.5
  0
LINE
  8
_0-4_
  6
CONTINUOUS
 62
    7
 10
716.80000000000007
 20
667.5
 11
716.80000000000007
 21
692.5
  0
LINE
  8
_0-4_
  6
CONTINUOUS
 62
    7
 10
719.70000000000005
 20
667.5
 11
719.70000000000005
 21
692.5
  0
ARC
  8
_0-4_
  6
CONTINUOUS
 62
    7
 10
718.60000000000002
 20
691.49374999999986
 40
1.8062500000000001
 50
33.855025999999995
 51
146.14497399999999
  0
LINE
  8
_0-4_
  6
DASHED2
 62
    4
 10
719.60000000000014
 20
667.5
 11
719.60000000000014
 21
692.5
  0
LINE
  8
_0-4_
  6
DASHED2
 62
    4
 10
717.60000000000002
 20
692.5
 11
717.60000000000002
 21
667.5
  0
ARC
  8
_0-4_
  6
CONTINUOUS
 62
    7
 10
718.60000000000002
 20
818.50625000000014
 40
1.8062500000000001
 50
213.85502600000001
 51
326.14497399999999
  0
LINE
  8
_0-4_
  6
CONTINUOUS
 62
    7
 10
719.70000000000005
 20
824.5
 11
716.80000000000007
 21
824.5
  0
LINE
  8
_0-4_
  6
CONTINUOUS
 62
    7
 10
719.70000000000005
 20
835.50000000000011
 11
716.80000000000007
 21
835.50000000000011
  0
LINE
  8
_0-4_
  6
CONTINUOUS
 62
    7
 10
720.40000000000009
 20
817.5
 11
716.80000000000007
 21
817.5
  0
LINE
  8
_0-4_
  6
CONTINUOUS
 62
    7
 10
720.40000000000009
 20
842.5
 11
720.40000000000009
 21
817.5
  0
LINE
  8
_0-4_
  6
CONTINUOUS
 62
    7
 10
720.40000000000009
 20
842.5
 11
716.80000000000007
 21
842.5
  0
LINE
  8
_0-4_
  6
CONTINUOUS
 62
    7
 10
716.80000000000007
 20
817.5
 11
716.80000000000007
 21
842.5
  0
LINE
  8
_0-4_
  6
CONTINUOUS
 62
    7
 10
719.70000000000005
 20
817.5
 11
719.70000000000005
 21
842.5
  0
ARC
  8
_0-4_
  6
CONTINUOUS
 62
    7
 10
718.60000000000002
 20
841.49374999999986
 40
1.8062500000000001
 50
33.855025999999995
 51
146.14497399999999
  0
LINE
  8
_0-4_
  6
DASHED2
 62
    4
 10
719.60000000000014
 20
817.5
 11
719.60000000000014
 21
842.5
  0
LINE
  8
_0-4_
  6
DASHED2
 62
    4
 10
717.60000000000002
 20
842.5
 11
717.60000000000002
 21
817.5
  0
LINE
  8
_0-0_
  6
CONTINUOUS
 62
    2
 10
681.80000000000007
 20
848.5
 11
681.80000000000007
 21
828.5
  0
LINE
  8
_0-0_
  6
CONTINUOUS
 62
    2
 10
681.80000000000007
 20
878.5
 11
681.80000000000007
 21
898.5
  0
LINE
  8
_0-0_
  6
CONTINUOUS
 62
    2
 10
750.40000000000009
 20
915
 11
770.40000000000009
 21
915
  0
LINE
  8
_0-0_
  6
CONTINUOUS
 62
    2
 10
700.40000000000009
 20
915
 11
720.40000000000009
 21
915
  0
LINE
  8
_0-0_
  6
CONTINUOUS
 62
    2
 10
681.80000000000007
 20
878.5
 11
681.80000000000007
 21
848.5
  0
TEXT
  8
_0-0_
 62
    7
 10
679.30000000000007
 20
850.375
 40
25
 41
1
 50
90
  1
30
  0
LINE
  8
_0-0_
  6
CONTINUOUS
 62
    2
 10
676.80000000000007
 20
848.5
 11
734.39999999999998
 21
848.5
  0
LINE
  8
_0-0_
  6
CONTINUOUS
 62
    2
 10
676.80000000000007
 20
878.5
 11
716.20000000000005
 21
878.5
  0
LINE
  8
_0-0_
  6
CONTINUOUS
 62
    2
 10
681.80000000000007
 20
848.5
 11
685.68228567653796
 21
834.01111260566393
  0
LINE
  8
_0-0_
  6
CONTINUOUS
 62
    2
 10
681.80000000000007
 20
848.5
 11
677.91771432346218
 21
834.01111260566393
  0
LINE
  8
_0-0_
  6
CONTINUOUS
 62
    2
 10
681.80000000000007
 20
878.5
 11
685.68228567653796
 21
892.98888739433607
  0
LINE
  8
_0-0_
  6
CONTINUOUS
 62
    2
 10
681.80000000000007
 20
878.5
 11
677.91771432346218
 21
892.98888739433607
  0
LINE
  8
_0-0_
  6
CONTINUOUS
 62
    2
 10
750.40000000000009
 20
915
 11
720.40000000000009
 21
915
  0
TEXT
  8
_0-0_
 62
    7
 10
722.27500000000009
 20
917.5
 40
25
 41
1
 50
0
  1
30
  0
LINE
  8
_0-0_
  6
CONTINUOUS
 62
    2
 10
720.40000000000009
 20
920
 11
720.40000000000009
 21
882.70000000000005
  0
LINE
  8
_0-0_
  6
CONTINUOUS
 62
    2
 10
750.40000000000009
 20
920
 11
750.40000000000009
 21
864.5
  0
LINE
  8
_0-0_
  6
CONTINUOUS
 62
    2
 10
720.40000000000009
 20
915
 11
705.91111260566413
 21
911.11771432346222
  0
LINE
  8
_0-0_
  6
CONTINUOUS
 62
    2
 10
720.40000000000009
 20
915
 11
705.91111260566413
 21
918.88228567653778
  0
LINE
  8
_0-0_
  6
CONTINUOUS
 62
    2
 10
750.40000000000009
 20
915
 11
764.88888739433605
 21
911.11771432346222
  0
LINE
  8
_0-0_
  6
CONTINUOUS
 62
    2
 10
750.40000000000009
 20
915
 11
764.88888739433605
 21
918.88228567653778
  0
LINE
  8
_0-3_
  6
CENTER2
 62
    4
 10
739.39999999999998
 20
848.5
 11
761.40000000000009
 21
848.5
  0
LINE
  8
_0-3_
  6
CENTER2
 62
    4
 10
750.40000000000009
 20
837.5
 11
750.40000000000009
 21
859.5
  0
CIRCLE
  8
_0-3_
  6
CONTINUOUS
 62
    7
 10
750.40000000000009
 20
848.5
 40
3
  0
LINE
  8
_0-2_
  6
CONTINUOUS
 62
    7
 10
730.40000000000009
 20
867.79289321881356
 11
720.44644660940673
 21
877.7464466094068
  0
LINE
  8
_0-2_
  6
CONTINUOUS
 62
    7
 10
731.10710678118664
 20
868.5
 11
721.15355339059329
 21
878.45355339059324
  0
ARC
  8
_0-2_
  6
CONTINUOUS
 62
    7
 10
721.20000000000005
 20
877.70000000000005
 40
0.8
 50
90
 51
180
  0
LINE
  8
_0-2_
  6
CONTINUOUS
 62
    7
 10
596.79999999999995
 20
877.70000000000005
 11
596.79999999999995
 21
632.30000000000007
  0
LINE
  8
_0-2_
  6
DASHED2
 62
    4
 10
596
 20
877.70000000000005
 11
596
 21
632.30000000000007
  0
LINE
  8
_0-1_
  6
CONTINUOUS
 62
    7
 10
486.80000000000001
 20
630
 11
486.80000000000001
 21
630.62457266397007
  0
LINE
  8
_0-1_
  6
CONTINUOUS
 62
    7
 10
486.80000000000001
 20
630.62457266397007
 11
486.80000000000001
 21
880
  0
LINE
  8
_0-1_
  6
DASHED2
 62
    4
 10
477.60000000000002
 20
879.20000000000005
 11
477.60000000000002
 21
630.79999999999995
  0
LINE
  8
_0-1_
  6
CONTINUOUS
 62
    7
 10
476.80000000000001
 20
879.20000000000005
 11
476.80000000000001
 21
630.79999999999995
  0
LINE
  8
_0-2_
  6
DASHED2
 62
    4
 10
486.80000000000007
 20
632.30000000000007
 11
596
 21
632.30000000000007
  0
LINE
  8
_0-2_
  6
CONTINUOUS
 62
    7
 10
486.80000000000007
 20
631.5
 11
596
 21
631.5
  0
LINE
  8
_0-2_
  6
CONTINUOUS
 62
    7
 10
596
 20
632.30000000000007
 11
596
 21
631.5
  0
LINE
  8
_0-2_
  6
CONTINUOUS
 62
    7
 10
596
 20
632.30000000000007
 11
596.79999999999995
 21
632.30000000000007
  0
LINE
  8
_0-1_
  6
DASHED2
 62
    4
 10
477.60000000000002
 20
630.79999999999995
 11
486.80000000000001
 21
630.79999999999995
  0
ARC
  8
_0-1_
  6
CONTINUOUS
 62
    7
 10
477.60000000000002
 20
630.79999999999995
 40
0.8
 50
180
 51
270
  0
LINE
  8
_0-1_
  6
CONTINUOUS
 62
    7
 10
477.60000000000002
 20
630
 11
486.80000000000001
 21
630
  0
LINE
  8
_0-4_
  6
CONTINUOUS
 62
    7
 10
490.39999999999998
 20
817.5
 11
486.80000000000001
 21
817.5
  0
LINE
  8
_0-4_
  6
CONTINUOUS
 62
    7
 10
490.90000000000003
 20
824.5
 11
486.80000000000001
 21
824.5
  0
LINE
  8
_0-4_
  6
CONTINUOUS
 62
    7
 10
486.80000000000001
 20
835.50000000000011
 11
490.90000000000003
 21
835.50000000000011
  0
LINE
  8
_0-4_
  6
CONTINUOUS
 62
    7
 10
486.80000000000001
 20
842.5
 11
490.39999999999998
 21
842.5
  0
LINE
  8
_0-4_
  6
DASHED2
 62
    4
 10
487.60000000000002
 20
817.5
 11
487.60000000000002
 21
842.5
  0
LINE
  8
_0-4_
  6
DASHED2
 62
    4
 10
489.60000000000002
 20
842.5
 11
489.60000000000002
 21
817.5
  0
ARC
  8
_0-4_
  6
CONTINUOUS
 62
    7
 10
488.60000000000002
 20
818.50625000000014
 40
1.8062500000000001
 50
213.85502600000001
 51
326.14497399999999
  0
LINE
  8
_0-4_
  6
CONTINUOUS
 62
    7
 10
490.90000000000003
 20
824.5
 11
490.90000000000003
 21
817.5
  0
LINE
  8
_0-4_
  6
CONTINUOUS
 62
    7
 10
498.60000000000002
 20
817.5
 11
490.90000000000003
 21
817.5
  0
CIRCLE
  8
_0-4_
  6
CONTINUOUS
 62
    7
 10
494.09999999999997
 20
822.20000000000005
 40
1.7000000000000002
  0
CIRCLE
  8
_0-4_
  6
CONTINUOUS
 62
    7
 10
494.09999999999997
 20
822.20000000000005
 40
2.1000000000000001
  0
CIRCLE
  8
_0-4_
  6
CONTINUOUS
 62
    7
 10
494.09999999999997
 20
837.79999999999995
 40
1.7000000000000002
  0
CIRCLE
  8
_0-4_
  6
CONTINUOUS
 62
    7
 10
494.09999999999997
 20
837.79999999999995
 40
2.1000000000000001
  0
LINE
  8
_0-4_
  6
CONTINUOUS
 62
    7
 10
498.60000000000002
 20
842.5
 11
498.60000000000002
 21
817.5
  0
LINE
  8
_0-4_
  6
CONTINUOUS
 62
    7
 10
490.90000000000003
 20
842.5
 11
498.60000000000002
 21
842.5
  0
LINE
  8
_0-4_
  6
CONTINUOUS
 62
    7
 10
490.90000000000003
 20
842.5
 11
490.90000000000003
 21
835.50000000000011
  0
LINE
  8
_0-4_
  6
CONTINUOUS
 62
    7
 10
490.39999999999998
 20
842.5
 11
490.39999999999998
 21
817.5
  0
LINE
  8
_0-4_
  6
CONTINUOUS
 62
    7
 10
486.80000000000001
 20
817.5
 11
486.80000000000001
 21
842.5
  0
ARC
  8
_0-4_
  6
CONTINUOUS
 62
    7
 10
488.60000000000002
 20
841.49374999999986
 40
1.8062500000000001
 50
33.855026000000009
 51
146.14497399999999
  0
LINE
  8
_0-4_
  6
CENTER2
 62
    4
 10
494.09999999999997
 20
818.60000000000002
 11
494.09999999999997
 21
825.80000000000018
  0
LINE
  8
_0-4_
  6
CENTER2
 62
    4
 10
497.69999999999993
 20
822.20000000000005
 11
491.27440300000001
 21
822.20000000000005
  0
LINE
  8
_0-4_
  6
CENTER2
 62
    4
 10
494.09999999999997
 20
834.20000000000005
 11
494.09999999999997
 21
841.39999999999998
  0
LINE
  8
_0-4_
  6
CENTER2
 62
    4
 10
497.69999999999993
 20
837.79999999999995
 11
491.27440300000001
 21
837.79999999999995
  0
ARC
  8
_0-4_
  6
CONTINUOUS
 62
    4
 10
488.60000000000002
 20
818.50625000000014
 40
1.8062500000000001
 50
213.85502600000001
 51
326.14497399999999
  0
LINE
  8
_0-4_
  6
CONTINUOUS
 62
    4
 10
490.39999999999998
 20
842.5
 11
490.39999999999998
 21
817.5
  0
LINE
  8
_0-4_
  6
CONTINUOUS
 62
    7
 10
490.39999999999998
 20
667.5
 11
486.80000000000001
 21
667.5
  0
LINE
  8
_0-4_
  6
CONTINUOUS
 62
    7
 10
490.90000000000003
 20
674.5
 11
486.80000000000001
 21
674.5
  0
LINE
  8
_0-4_
  6
CONTINUOUS
 62
    7
 10
486.80000000000001
 20
685.50000000000011
 11
490.90000000000003
 21
685.50000000000011
  0
LINE
  8
_0-4_
  6
CONTINUOUS
 62
    7
 10
486.80000000000001
 20
692.5
 11
490.39999999999998
 21
692.5
  0
LINE
  8
_0-4_
  6
DASHED2
 62
    4
 10
487.60000000000002
 20
667.5
 11
487.60000000000002
 21
692.5
  0
LINE
  8
_0-4_
  6
DASHED2
 62
    4
 10
489.60000000000002
 20
692.5
 11
489.60000000000002
 21
667.5
  0
ARC
  8
_0-4_
  6
CONTINUOUS
 62
    7
 10
488.60000000000002
 20
668.50625000000014
 40
1.8062500000000001
 50
213.85502600000001
 51
326.14497399999999
  0
LINE
  8
_0-4_
  6
CONTINUOUS
 62
    7
 10
490.90000000000003
 20
674.5
 11
490.90000000000003
 21
667.5
  0
LINE
  8
_0-4_
  6
CONTINUOUS
 62
    7
 10
498.60000000000002
 20
667.5
 11
490.90000000000003
 21
667.5
  0
CIRCLE
  8
_0-4_
  6
CONTINUOUS
 62
    7
 10
494.09999999999997
 20
672.20000000000016
 40
1.7000000000000002
  0
CIRCLE
  8
_0-4_
  6
CONTINUOUS
 62
    7
 10
494.09999999999997
 20
672.20000000000016
 40
2.1000000000000001
  0
CIRCLE
  8
_0-4_
  6
CONTINUOUS
 62
    7
 10
494.09999999999997
 20
687.79999999999995
 40
1.7000000000000002
  0
CIRCLE
  8
_0-4_
  6
CONTINUOUS
 62
    7
 10
494.09999999999997
 20
687.79999999999995
 40
2.1000000000000001
  0
LINE
  8
_0-4_
  6
CONTINUOUS
 62
    7
 10
498.60000000000002
 20
692.5
 11
498.60000000000002
 21
667.5
  0
LINE
  8
_0-4_
  6
CONTINUOUS
 62
    7
 10
490.90000000000003
 20
692.5
 11
498.60000000000002
 21
692.5
  0
LINE
  8
_0-4_
  6
CONTINUOUS
 62
    7
 10
490.90000000000003
 20
692.5
 11
490.90000000000003
 21
685.50000000000011
  0
LINE
  8
_0-4_
  6
CONTINUOUS
 62
    7
 10
490.39999999999998
 20
692.5
 11
490.39999999999998
 21
667.5
  0
LINE
  8
_0-4_
  6
CONTINUOUS
 62
    7
 10
486.80000000000001
 20
667.5
 11
486.80000000000001
 21
692.5
  0
ARC
  8
_0-4_
  6
CONTINUOUS
 62
    7
 10
488.60000000000002
 20
691.49374999999986
 40
1.8062500000000001
 50
33.855026000000009
 51
146.14497399999999
  0
LINE
  8
_0-4_
  6
CENTER2
 62
    4
 10
494.09999999999997
 20
668.60000000000002
 11
494.09999999999997
 21
675.80000000000018
  0
LINE
  8
_0-4_
  6
CENTER2
 62
    4
 10
497.69999999999993
 20
672.20000000000016
 11
491.27440300000001
 21
672.20000000000016
  0
LINE
  8
_0-4_
  6
CENTER2
 62
    4
 10
494.09999999999997
 20
684.20000000000005
 11
494.09999999999997
 21
691.39999999999998
  0
LINE
  8
_0-4_
  6
CENTER2
 62
    4
 10
497.69999999999993
 20
687.79999999999995
 11
491.27440300000001
 21
687.79999999999995
  0
ARC
  8
_0-4_
  6
CONTINUOUS
 62
    4
 10
488.60000000000002
 20
668.50625000000014
 40
1.8062500000000001
 50
213.85502600000001
 51
326.14497399999999
  0
LINE
  8
_0-4_
  6
CONTINUOUS
 62
    4
 10
490.39999999999998
 20
692.5
 11
490.39999999999998
 21
667.5
  0
LINE
  8
_0-0_
  6
CONTINUOUS
 62
    2
 10
476.80000000000001
 20
915
 11
596.79999999999995
 21
915
  0
TEXT
  8
_0-0_
 62
    7
 10
516.79999999999995
 20
917.5
 40
25
 41
1
 50
0
  1
120
  0
LINE
  8
_0-0_
  6
CONTINUOUS
 62
    2
 10
596.79999999999995
 20
920
 11
596.79999999999995
 21
882.70000000000005
  0
LINE
  8
_0-0_
  6
CONTINUOUS
 62
    2
 10
476.80000000000001
 20
920
 11
476.80000000000001
 21
884.20000000000005
  0
LINE
  8
_0-0_
  6
CONTINUOUS
 62
    2
 10
596.79999999999995
 20
915
 11
582.31111260566399
 21
911.11771432346222
  0
LINE
  8
_0-0_
  6
CONTINUOUS
 62
    2
 10
596.79999999999995
 20
915
 11
582.31111260566399
 21
918.88228567653778
  0
LINE
  8
_0-0_
  6
CONTINUOUS
 62
    2
 10
476.80000000000001
 20
915
 11
491.28888739433603
 21
911.11771432346222
  0
LINE
  8
_0-0_
  6
CONTINUOUS
 62
    2
 10
476.80000000000001
 20
915
 11
491.28888739433603
 21
918.88228567653778
  0
LINE
  8
_0-2_
  6
DASHED2
 62
    4
 10
596
 20
877.70000000000005
 11
486.80000000000007
 21
877.70000000000005
  0
ARC
  8
_0-2_
  6
CONTINUOUS
 62
    7
 10
596
 20
877.70000000000005
 40
0.8
 50
0
 51
90.000000000000014
  0
LINE
  8
_0-2_
  6
CONTINUOUS
 62
    7
 10
596
 20
878.5
 11
486.80000000000007
 21
878.5
  0
LINE
  8
_0-1_
  6
DASHED2
 62
    4
 10
477.60000000000002
 20
879.20000000000005
 11
486.80000000000001
 21
879.20000000000005
  0
ARC
  8
_0-1_
  6
CONTINUOUS
 62
    7
 10
477.60000000000002
 20
879.20000000000005
 40
0.8
 50
90
 51
180
  0
LINE
  8
_0-1_
  6
CONTINUOUS
 62
    7
 10
477.60000000000002
 20
880
 11
486.80000000000001
 21
880
  0
LINE
  8
_0-3_
  6
CONTINUOUS
 62
    7
 10
181.50000000000006
 20
510
 11
358.42388155425101
 21
510
  0
LINE
  8
_0-1_
  6
CONTINUOUS
 62
    7
 10
170
 20
520
 11
370.00000000000006
 21
520
  0
LINE
  8
_0-1_
  6
CONTINUOUS
 62
    7
 10
170.79999999999998
 20
530
 11
369.2000000000001
 21
530
  0
LINE
  8
_0-1_
  6
DASHED2
 62
    4
 10
170.79999999999998
 20
529.20000000000005
 11
369.2000000000001
 21
529.20000000000005
  0
LINE
  8
_0-3_
  6
CONTINUOUS
 62
    4
 10
351.35281374238559
 20
510
 11
358.50000000000011
 21
517.14718625761452
  0
LINE
  8
_0-3_
  6
CONTINUOUS
 62
    4
 10
351.35281374238559
 20
520
 11
358.50000000000011
 21
512.85281374238548
  0
LINE
  8
_0-3_
  6
CONTINUOUS
 62
    4
 10
181.50000000000006
 20
513.07611844574899
 11
184.57611844574899
 21
510
  0
LINE
  8
_0-3_
  6
CONTINUOUS
 62
    4
 10
181.50000000000006
 20
516.92388155425101
 11
184.57611844574899
 21
520
  0
LINE
  8
_0-3_
  6
CONTINUOUS
 62
    4
 10
344.28174593052012
 20
520
 11
354.28174593052006
 21
510
  0
LINE
  8
_0-3_
  6
CONTINUOUS
 62
    4
 10
344.28174593052006
 20
510
 11
354.28174593052006
 21
520
  0
LINE
  8
_0-3_
  6
CONTINUOUS
 62
    4
 10
337.21067811865464
 20
520
 11
347.21067811865464
 21
510
  0
LINE
  8
_0-3_
  6
CONTINUOUS
 62
    4
 10
337.21067811865464
 20
510
 11
347.21067811865464
 21
520
  0
LINE
  8
_0-3_
  6
CONTINUOUS
 62
    4
 10
330.13961030678922
 20
520
 11
340.13961030678911
 21
510
  0
LINE
  8
_0-3_
  6
CONTINUOUS
 62
    4
 10
330.13961030678911
 20
510
 11
340.13961030678911
 21
520
  0
LINE
  8
_0-3_
  6
CONTINUOUS
 62
    4
 10
323.06854249492375
 20
520
 11
333.06854249492375
 21
510
  0
LINE
  8
_0-3_
  6
CONTINUOUS
 62
    4
 10
323.06854249492375
 20
510
 11
333.06854249492375
 21
520
  0
LINE
  8
_0-3_
  6
CONTINUOUS
 62
    4
 10
315.99747468305827
 20
520
 11
325.99747468305821
 21
510
  0
LINE
  8
_0-3_
  6
CONTINUOUS
 62
    4
 10
315.99747468305821
 20
510
 11
325.99747468305821
 21
520
  0
LINE
  8
_0-3_
  6
CONTINUOUS
 62
    4
 10
308.92640687119285
 20
520
 11
318.92640687119285
 21
510
  0
LINE
  8
_0-3_
  6
CONTINUOUS
 62
    4
 10
308.92640687119285
 20
510
 11
318.92640687119285
 21
520
  0
LINE
  8
_0-3_
  6
CONTINUOUS
 62
    4
 10
301.85533905932738
 20
520
 11
311.85533905932732
 21
510
  0
LINE
  8
_0-3_
  6
CONTINUOUS
 62
    4
 10
301.85533905932732
 20
510
 11
311.85533905932732
 21
520
  0
LINE
  8
_0-3_
  6
CONTINUOUS
 62
    4
 10
294.7842712474619
 20
520
 11
304.7842712474619
 21
510
  0
LINE
  8
_0-3_
  6
CONTINUOUS
 62
    4
 10
294.7842712474619
 20
510
 11
304.7842712474619
 21
520
  0
LINE
  8
_0-3_
  6
CONTINUOUS
 62
    4
 10
287.71320343559643
 20
520
 11
297.71320343559637
 21
510
  0
LINE
  8
_0-3_
  6
CONTINUOUS
 62
    4
 10
287.71320343559637
 20
510
 11
297.71320343559637
 21
520
  0
LINE
  8
_0-3_
  6
CONTINUOUS
 62
    4
 10
280.64213562373095
 20
520
 11
290.64213562373095
 21
510
  0
LINE
  8
_0-3_
  6
CONTINUOUS
 62
    4
 10
280.64213562373095
 20
510
 11
290.64213562373095
 21
520
  0
LINE
  8
_0-3_
  6
CONTINUOUS
 62
    4
 10
273.57106781186553
 20
520
 11
283.57106781186542
 21
510
  0
LINE
  8
_0-3_
  6
CONTINUOUS
 62
    4
 10
273.57106781186542
 20
510
 11
283.57106781186542
 21
520
  0
LINE
  8
_0-3_
  6
CONTINUOUS
 62
    4
 10
181.64718625761446
 20
510
 11
191.64718625761446
 21
520
  0
LINE
  8
_0-3_
  6
CONTINUOUS
 62
    4
 10
181.64718625761446
 20
520
 11
191.64718625761446
 21
510
  0
LINE
  8
_0-3_
  6
CONTINUOUS
 62
    4
 10
188.71825406947991
 20
510
 11
198.71825406947991
 21
520
  0
LINE
  8
_0-3_
  6
CONTINUOUS
 62
    4
 10
188.71825406947991
 20
520
 11
198.71825406947991
 21
510
  0
LINE
  8
_0-3_
  6
CONTINUOUS
 62
    4
 10
195.78932188134536
 20
510
 11
205.78932188134536
 21
520
  0
LINE
  8
_0-3_
  6
CONTINUOUS
 62
    4
 10
195.78932188134536
 20
520
 11
205.78932188134536
 21
510
  0
LINE
  8
_0-3_
  6
CONTINUOUS
 62
    4
 10
202.86038969321083
 20
510
 11
212.86038969321083
 21
520
  0
LINE
  8
_0-3_
  6
CONTINUOUS
 62
    4
 10
202.86038969321083
 20
520
 11
212.86038969321083
 21
510
  0
LINE
  8
_0-3_
  6
CONTINUOUS
 62
    4
 10
209.93145750507631
 20
510
 11
219.93145750507631
 21
520
  0
LINE
  8
_0-3_
  6
CONTINUOUS
 62
    4
 10
209.93145750507631
 20
520
 11
219.93145750507631
 21
510
  0
LINE
  8
_0-3_
  6
CONTINUOUS
 62
    4
 10
217.00252531694176
 20
510
 11
227.00252531694176
 21
520
  0
LINE
  8
_0-3_
  6
CONTINUOUS
 62
    4
 10
217.00252531694176
 20
520
 11
227.00252531694176
 21
510
  0
LINE
  8
_0-3_
  6
CONTINUOUS
 62
    4
 10
224.07359312880729
 20
510
 11
234.07359312880729
 21
520
  0
LINE
  8
_0-3_
  6
CONTINUOUS
 62
    4
 10
224.07359312880729
 20
520
 11
234.07359312880729
 21
510
  0
LINE
  8
_0-3_
  6
CONTINUOUS
 62
    4
 10
231.14466094067268
 20
510
 11
241.14466094067268
 21
520
  0
LINE
  8
_0-3_
  6
CONTINUOUS
 62
    4
 10
231.14466094067268
 20
520
 11
241.14466094067268
 21
510
  0
LINE
  8
_0-3_
  6
CONTINUOUS
 62
    4
 10
238.21572875253821
 20
510
 11
248.21572875253821
 21
520
  0
LINE
  8
_0-3_
  6
CONTINUOUS
 62
    4
 10
238.21572875253821
 20
520
 11
248.21572875253821
 21
510
  0
LINE
  8
_0-3_
  6
CONTINUOUS
 62
    4
 10
245.2867965644036
 20
510
 11
255.2867965644036
 21
520
  0
LINE
  8
_0-3_
  6
CONTINUOUS
 62
    4
 10
245.2867965644036
 20
520
 11
255.2867965644036
 21
510
  0
LINE
  8
_0-3_
  6
CONTINUOUS
 62
    4
 10
252.35786437626913
 20
520
 11
262.35786437626916
 21
510
  0
LINE
  8
_0-3_
  6
CONTINUOUS
 62
    4
 10
266.50000000000006
 20
510
 11
276.50000000000006
 21
520
  0
LINE
  8
_0-3_
  6
CONTINUOUS
 62
    4
 10
266.50000000000006
 20
520
 11
276.50000000000006
 21
510
  0
LINE
  8
_0-3_
  6
CONTINUOUS
 62
    4
 10
259.42893218813452
 20
510
 11
269.42893218813452
 21
520
  0
LINE
  8
_0-3_
  6
CONTINUOUS
 62
    4
 10
252.35786437626913
 20
510
 11
262.35786437626916
 21
520
  0
LINE
  8
_0-3_
  6
CONTINUOUS
 62
    4
 10
259.42893218813452
 20
520
 11
269.42893218813452
 21
510
  0
LINE
  8
_0-0_
  6
CONTINUOUS
 62
    2
 10
170
 20
915
 11
370.00000000000006
 21
915
  0
TEXT
  8
_0-0_
 62
    7
 10
250
 20
917.5
 40
25
 41
1
 50
0
  1
200
  0
LINE
  8
_0-1_
  6
CONTINUOUS
 62
    7
 10
170
 20
880
 11
370.00000000000006
 21
880
  0
LINE
  8
_0-1_
  6
DASHED2
 62
    4
 10
170.79999999999998
 20
879.20000000000005
 11
369.2000000000001
 21
879.20000000000005
  0
LINE
  8
_0-1_
  6
CONTINUOUS
 62
    7
 10
370.00000000000006
 20
630
 11
370.00000000000006
 21
880
  0
LINE
  8
_0-1_
  6
CONTINUOUS
 62
    7
 10
170
 20
630
 11
370.00000000000006
 21
630
  0
LINE
  8
_0-1_
  6
DASHED2
 62
    4
 10
170.79999999999998
 20
630.79999999999995
 11
369.2000000000001
 21
630.79999999999995
  0
LINE
  8
_0-1_
  6
DASHED2
 62
    4
 10
369.2000000000001
 20
630.79999999999995
 11
369.2000000000001
 21
879.20000000000005
  0
LINE
  8
_0-1_
  6
CONTINUOUS
 62
    7
 10
170
 20
630
 11
170
 21
880
  0
LINE
  8
_0-1_
  6
DASHED2
 62
    4
 10
170.79999999999998
 20
630.79999999999995
 11
170.79999999999998
 21
879.20000000000005
  0
LINE
  8
_0-0_
  6
CONTINUOUS
 62
    2
 10
135
 20
630
 11
135
 21
880
  0
TEXT
  8
_0-0_
 62
    7
 10
132.5
 20
735
 40
25
 41
1
 50
90
  1
250
  0
LINE
  8
_0-0_
  6
CONTINUOUS
 62
    7
 10
368.50000000000011
 20
465.81367799329666
 11
405.50961894323348
 21
487.18119145277797
  0
TEXT
  8
_0-0_
 62
    7
 10
406.00000000000011
 20
482.18119145277797
 40
25
 41
1
 50
0
  1
２
  0
CIRCLE
  8
_0-0_
  6
CONTINUOUS
 62
    7
 10
418.50000000000011
 20
494.68119145277797
 40
15
  0
LINE
  8
_0-0_
  6
CONTINUOUS
 62
    7
 10
368.50000000000011
 20
465.81367799329666
 11
382.98888739433607
 21
469.69596366983444
  0
LINE
  8
_0-0_
  6
CONTINUOUS
 62
    7
 10
368.50000000000011
 20
465.81367799329666
 11
379.10660171779824
 21
476.42027971109485
  0
LINE
  8
_0-3_
  6
DASHED2
 62
    4
 10
358.50000000000011
 20
510
 11
367.70000000000005
 21
510
  0
LINE
  8
_0-2_
  6
CONTINUOUS
 62
    7
 10
368.50000000000011
 20
410.79999999999995
 11
358.50000000000011
 21
410.79999999999995
  0
LINE
  8
_0-2_
  6
CONTINUOUS
 62
    7
 10
367.70000000000005
 20
410
 11
358.50000000000011
 21
410
  0
LINE
  8
_0-2_
  6
CONTINUOUS
 62
    7
 10
358.50000000000011
 20
410
 11
358.50000000000011
 21
520
  0
LINE
  8
_0-4_
  6
CONTINUOUS
 62
    7
 10
368.50000000000011
 20
508.19999999999999
 11
368.50000000000011
 21
520
  0
LINE
  8
_0-4_
  6
CONTINUOUS
 62
    7
 10
369.20000000000005
 20
520
 11
369.20000000000005
 21
519.62478099999998
  0
CIRCLE
  8
_0-4_
  6
DASHED2
 62
    4
 10
370.30000000000001
 20
518.20000000000005
 40
1
  0
LINE
  8
_0-4_
  6
CONTINUOUS
 62
    7
 10
369.24967900000007
 20
516.73821199999998
 11
369.44551800000005
 21
516.967174
  0
CIRCLE
  8
_0-4_
  6
CONTINUOUS
 62
    7
 10
370.30000000000001
 20
518.20000000000005
 40
1.5000000000000002
  0
ARC
  8
_0-4_
  6
CONTINUOUS
 62
    7
 10
370.30000000000001
 20
518.20000000000005
 40
1.8000000000000003
 50
232.33011299999998
 51
180
  0
LINE
  8
_0-4_
  6
CONTINUOUS
 62
    7
 10
369.20000000000005
 20
517.18019600000002
 11
369.20000000000005
 21
508.19999999999999
  0
LINE
  8
_0-4_
  6
CONTINUOUS
 62
    7
 10
369.20000000000005
 20
508.19999999999999
 11
368.50000000000011
 21
508.19999999999999
  0
LINE
  8
_0-2_
  6
DASHED2
 62
    4
 10
367.70000000000005
 20
410.79999999999995
 11
367.70000000000005
 21
520
  0
ARC
  8
_0-2_
  6
CONTINUOUS
 62
    7
 10
367.70000000000005
 20
410.79999999999995
 40
0.8
 50
270
 51
0
  0
LINE
  8
_0-2_
  6
CONTINUOUS
 62
    7
 10
368.50000000000011
 20
410.79999999999995
 11
368.50000000000011
 21
520
  0
ARC
  8
_0-1_
  6
CONTINUOUS
 62
    7
 10
369.2000000000001
 20
529.20000000000005
 40
0.8
 50
0.0000000000000127
 51
90
  0
LINE
  8
_0-1_
  6
CONTINUOUS
 62
    7
 10
370.00000000000006
 20
529.20000000000005
 11
370.00000000000006
 21
520
  0
LINE
  8
_0-1_
  6
DASHED2
 62
    4
 10
369.2000000000001
 20
529.20000000000005
 11
369.2000000000001
 21
520
  0
LINE
  8
_0-0_
  6
CONTINUOUS
 62
    7
 10
372.10000000000008
 20
680
 11
407.00961894323348
 21
700.15507789418302
  0
LINE
  8
_0-0_
  6
CONTINUOUS
 62
    7
 10
370.00000000000006
 20
755
 11
407.00961894323348
 21
776.3675134594813
  0
LINE
  8
_0-0_
  6
CONTINUOUS
 62
    7
 10
370.00000000000006
 20
755
 11
384.48888739433613
 21
758.88228567653778
  0
LINE
  8
_0-0_
  6
CONTINUOUS
 62
    7
 10
370.00000000000006
 20
755
 11
380.6066017177983
 21
765.6066017177983
  0
TEXT
  8
_0-0_
 62
    7
 10
407.50000000000006
 20
771.36751345948142
 40
25
 41
1
 50
0
  1
１
  0
CIRCLE
  8
_0-0_
  6
CONTINUOUS
 62
    7
 10
420.00000000000006
 20
783.86751345948142
 40
15
  0
TEXT
  8
_0-0_
 62
    7
 10
407.50000000000006
 20
695.15507789418302
 40
25
 41
1
 50
0
  1
４
  0
CIRCLE
  8
_0-0_
  6
CONTINUOUS
 62
    7
 10
420.00000000000006
 20
707.65507789418302
 40
15
  0
LINE
  8
_0-0_
  6
CONTINUOUS
 62
    7
 10
372.10000000000008
 20
680
 11
386.5888873943361
 21
683.88228567653778
  0
LINE
  8
_0-0_
  6
CONTINUOUS
 62
    7
 10
372.10000000000008
 20
680
 11
382.70660171779821
 21
690.6066017177983
  0
ARC
  8
_0-4_
  6
CONTINUOUS
 62
    7
 10
370.30000000000007
 20
841.49374999999986
 40
1.8062500000000001
 50
33.855026000000009
 51
99.560558620515607
  0
LINE
  8
_0-4_
  6
CONTINUOUS
 62
    7
 10
370.00000000000006
 20
842.5
 11
372.10000000000008
 21
842.5
  0
LINE
  8
_0-4_
  6
CONTINUOUS
 62
    7
 10
370.00000000000006
 20
835.50000000000011
 11
372.10000000000008
 21
835.50000000000011
  0
LINE
  8
_0-4_
  6
CONTINUOUS
 62
    7
 10
370.00000000000006
 20
824.5
 11
372.10000000000008
 21
824.5
  0
LINE
  8
_0-4_
  6
CONTINUOUS
 62
    7
 10
370.00000000000006
 20
817.5
 11
372.10000000000008
 21
817.5
  0
ARC
  8
_0-4_
  6
CONTINUOUS
 62
    7
 10
370.30000000000007
 20
818.50625000000014
 40
1.8062500000000001
 50
260.43944137948438
 51
326.14497399999999
  0
ARC
  8
_0-4_
  6
CONTINUOUS
 62
    7
 10
370.30000000000007
 20
691.49374999999986
 40
1.8062500000000001
 50
33.855026000000009
 51
99.560558620515607
  0
LINE
  8
_0-4_
  6
CONTINUOUS
 62
    7
 10
370.00000000000006
 20
692.5
 11
372.10000000000008
 21
692.5
  0
LINE
  8
_0-4_
  6
CONTINUOUS
 62
    7
 10
370.00000000000006
 20
685.50000000000011
 11
372.10000000000008
 21
685.50000000000011
  0
LINE
  8
_0-4_
  6
CONTINUOUS
 62
    7
 10
370.00000000000006
 20
674.5
 11
372.10000000000008
 21
674.5
  0
LINE
  8
_0-4_
  6
CONTINUOUS
 62
    7
 10
370.00000000000006
 20
667.5
 11
372.10000000000008
 21
667.5
  0
ARC
  8
_0-4_
  6
CONTINUOUS
 62
    7
 10
370.30000000000007
 20
668.50625000000014
 40
1.8062500000000001
 50
260.43944137948438
 51
326.14497399999999
  0
LINE
  8
_0-4_
  6
CONTINUOUS
 62
    7
 10
372.10000000000008
 20
667.5
 11
372.10000000000008
 21
692.5
  0
LINE
  8
_0-4_
  6
DASHED2
 62
    4
 10
371.30000000000007
 20
692.5
 11
371.30000000000007
 21
667.5
  0
LINE
  8
_0-4_
  6
CONTINUOUS
 62
    7
 10
372.10000000000008
 20
817.5
 11
372.10000000000008
 21
842.5
  0
LINE
  8
_0-4_
  6
DASHED2
 62
    4
 10
371.30000000000007
 20
842.5
 11
371.30000000000007
 21
817.5
  0
LINE
  8
_0-0_
  6
CONTINUOUS
 62
    2
 10
370.00000000000006
 20
920
 11
370.00000000000006
 21
885
  0
LINE
  8
_0-0_
  6
CONTINUOUS
 62
    2
 10
370.00000000000006
 20
915
 11
355.51111260566404
 21
911.11771432346222
  0
LINE
  8
_0-0_
  6
CONTINUOUS
 62
    2
 10
370.00000000000006
 20
915
 11
355.51111260566404
 21
918.88228567653778
  0
LINE
  8
_0-0_
  6
CONTINUOUS
 62
    7
 10
315
 20
410.79999999999995
 11
318.88228567653783
 21
396.31111260566394
  0
LINE
  8
_0-0_
  6
CONTINUOUS
 62
    7
 10
315
 20
410.79999999999995
 11
325.60660171779824
 21
400.19339828220177
  0
LINE
  8
_0-0_
  6
CONTINUOUS
 62
    7
 10
307.23614639131597
 20
555
 11
410.03881080063451
 21
555
  0
TEXT
  8
_0-0_
 62
    7
 10
307.23614639131597
 20
555
 40
17.5
 41
1
 50
0
  1
水抜き用開口
  0
LINE
  8
_0-0_
  6
CONTINUOUS
 62
    7
 10
284.14213562373095
 20
515
 11
307.23614639131597
 21
555
  0
LINE
  8
_0-0_
  6
CONTINUOUS
 62
    7
 10
284.14213562373095
 20
515
 11
294.74873734152925
 21
525.60660171779818
  0
LINE
  8
_0-0_
  6
CONTINUOUS
 62
    7
 10
284.14213562373095
 20
515
 11
288.02442130026873
 21
529.48888739433607
  0
TEXT
  8
_0-1_
 62
    7
 10
255
 20
695
 40
30
 41
1
 50
0
  1
栓
  0
TEXT
  8
_0-1_
 62
    7
 10
255
 20
740
 40
30
 41
1
 50
0
  1
水
  0
TEXT
  8
_0-1_
 62
    7
 10
255
 20
785
 40
30
 41
1
 50
0
  1
散
  0
POINT
  8
_0-1_
 62
    9
 10
270
 20
710
  0
POINT
  8
_0-1_
 62
    9
 10
270
 20
755
  0
POINT
  8
_0-1_
 62
    9
 10
270
 20
800
  0
LINE
  8
_0-0_
  6
CONTINUOUS
 62
    2
 10
130
 20
630
 11
165
 21
630
  0
LINE
  8
_0-0_
  6
CONTINUOUS
 62
    2
 10
135
 20
630
 11
138.88228567653783
 21
644.48888739433596
  0
LINE
  8
_0-0_
  6
CONTINUOUS
 62
    2
 10
135
 20
630
 11
131.11771432346217
 21
644.48888739433596
  0
LINE
  8
_0-3_
  6
DASHED2
 62
    4
 10
181.50000000000006
 20
510
 11
172.30000000000004
 21
510
  0
LINE
  8
_0-2_
  6
CONTINUOUS
 62
    7
 10
181.50000000000006
 20
410.79999999999995
 11
171.50000000000006
 21
410.79999999999995
  0
LINE
  8
_0-2_
  6
CONTINUOUS
 62
    7
 10
181.50000000000006
 20
410
 11
172.30000000000004
 21
410
  0
LINE
  8
_0-2_
  6
CONTINUOUS
 62
    7
 10
181.50000000000006
 20
410
 11
181.50000000000006
 21
520
  0
LINE
  8
_0-2_
  6
DASHED2
 62
    4
 10
172.30000000000004
 20
410.79999999999995
 11
172.30000000000004
 21
520
  0
ARC
  8
_0-2_
  6
CONTINUOUS
 62
    7
 10
172.30000000000004
 20
410.79999999999995
 40
0.8
 50
180
 51
270
  0
LINE
  8
_0-2_
  6
CONTINUOUS
 62
    7
 10
171.50000000000006
 20
410.79999999999995
 11
171.50000000000006
 21
520
  0
ARC
  8
_0-1_
  6
CONTINUOUS
 62
    7
 10
170.79999999999998
 20
529.20000000000005
 40
0.8
 50
90
 51
180
  0
LINE
  8
_0-1_
  6
CONTINUOUS
 62
    7
 10
170
 20
529.20000000000005
 11
170
 21
520
  0
LINE
  8
_0-1_
  6
DASHED2
 62
    4
 10
170.79999999999998
 20
529.20000000000005
 11
170.79999999999998
 21
520
  0
LINE
  8
_0-0_
  6
CONTINUOUS
 62
    2
 10
130
 20
880
 11
165
 21
880
  0
LINE
  8
_0-0_
  6
CONTINUOUS
 62
    2
 10
135
 20
880
 11
138.88228567653783
 21
865.51111260566404
  0
LINE
  8
_0-0_
  6
CONTINUOUS
 62
    2
 10
135
 20
880
 11
131.11771432346217
 21
865.51111260566404
  0
LINE
  8
_0-0_
  6
CONTINUOUS
 62
    2
 10
170
 20
920
 11
170
 21
885
  0
LINE
  8
_0-0_
  6
CONTINUOUS
 62
    2
 10
170
 20
915
 11
184.48888739433599
 21
911.11771432346222
  0
LINE
  8
_0-0_
  6
CONTINUOUS
 62
    2
 10
170
 20
915
 11
184.48888739433599
 21
918.88228567653778
  0
LINE
  8
_0-f_
  6
CONTINUOUS
 62
    3
 10
50
 20
1000
 11
50
 21
50
  0
LINE
  8
_0-f_
  6
CONTINUOUS
 62
    3
 10
50
 20
50
 11
1435
 21
50
  0
LINE
  8
_0-f_
  6
CONTINUOUS
 62
    3
 10
1435
 20
50
 11
1435
 21
1000
  0
LINE
  8
_0-f_
  6
CONTINUOUS
 62
    3
 10
1435
 20
1000
 11
50
 21
1000
  0
LINE
  8
_0-f_
  6
CONTINUOUS
 62
    7
 10
485
 20
95
 11
1435
 21
95
  0
LINE
  8
_0-f_
  6
CONTINUOUS
 62
    7
 10
485
 20
185
 11
1435
 21
185
  0
LINE
  8
_0-f_
  6
CONTINUOUS
 62
    7
 10
485
 20
50
 11
485
 21
230
  0
LINE
  8
_0-f_
  6
CONTINUOUS
 62
    7
 10
485
 20
230
 11
1435
 21
230
  0
LINE
  8
_0-f_
  6
CONTINUOUS
 62
    7
 10
1350
 20
50
 11
1350
 21
95
  0
LINE
  8
_0-f_
  6
CONTINUOUS
 62
    7
 10
960
 20
95
 11
960
 21
230
  0
LINE
  8
_0-f_
  6
CONTINUOUS
 62
    7
 10
1310
 20
140
 11
1310
 21
230
  0
LINE
  8
_0-f_
  6
CONTINUOUS
 62
    7
 10
685
 20
95
 11
685
 21
185
  0
LINE
  8
_0-f_
  6
CONTINUOUS
 62
    7
 10
585
 20
95
 11
585
 21
185
  0
LINE
  8
_0-f_
  6
CONTINUOUS
 62
    7
 10
785
 20
140
 11
1435
 21
140
  0
LINE
  8
_0-f_
  6
CONTINUOUS
 62
    7
 10
785
 20
50
 11
785
 21
185
  0
POINT
  8
_0-f_
 62
    9
 10
520
 20
187.5
  0
POINT
  8
_0-f_
 62
    9
 10
1005
 20
187.5
  0
POINT
  8
_0-f_
 62
    9
 10
965
 20
210
  0
TEXT
  8
_0-f_
 62
    7
 10
490
 20
210
 40
15
 41
0.6666666666666666
 50
0
  1
注
  0
TEXT
  8
_0-f_
 62
    7
 10
965
 20
210
 40
15
 41
0.6666666666666666
 50
0
  1
材質　MATERIAL
  0
TEXT
  8
_0-f_
 62
    7
 10
1315
 20
210
 40
15
 41
0.6666666666666666
 50
0
  1
個数　QUANTITY
  0
TEXT
  8
_0-f_
 62
    7
 10
1005
 20
187.5
 40
17.5
 41
1
 50
0
  1
別記
  0
TEXT
  8
_0-f_
 62
    7
 10
1340
 20
187.5
 40
17.5
 41
1
 50
0
  1
別記
  0
TEXT
  8
_0-f_
 62
    7
 10
490
 20
165
 40
15
 41
0.6666666666666666
 50
0
  1
APPROVED
  0
TEXT
  8
_0-f_
 62
    7
 10
590
 20
165
 40
15
 41
0.6666666666666666
 50
0
  1
CHECKED
  0
POINT
  8
_0-f_
 62
    9
 10
535
 20
97.5
  0
POINT
  8
_0-f_
 62
    9
 10
635
 20
97.5
  0
POINT
  8
_0-f_
 62
    9
 10
735
 20
97.5
  0
POINT
  8
_0-f_
 62
    9
 10
490
 20
165
  0
POINT
  8
_0-f_
 62
    9
 10
590
 20
165
  0
POINT
  8
_0-f_
 62
    9
 10
690
 20
165
  0
POINT
  8
_0-f_
 62
    9
 10
790
 20
165
  0
POINT
  8
_0-f_
 62
    9
 10
965
 20
165
  0
POINT
  8
_0-f_
 62
    9
 10
980
 20
142.5
  0
POINT
  8
_0-f_
 62
    9
 10
790
 20
72.5
  0
POINT
  8
_0-f_
 62
    9
 10
580
 20
57.5
  0
POINT
  8
_0-f_
 62
    9
 10
980
 20
52.5
  0
POINT
  8
_0-f_
 62
    9
 10
980
 20
97.5
  0
POINT
  8
_0-f_
 62
    9
 10
1325
 20
142.5
  0
POINT
  8
_0-f_
 62
    9
 10
1315
 20
165
  0
POINT
  8
_0-f_
 62
    9
 10
1315
 20
210
  0
POINT
  8
_0-f_
 62
    9
 10
1340
 20
187.5
  0
POINT
  8
_0-f_
 62
    9
 10
1375
 20
52.5
  0
POINT
  8
_0-f_
 62
    9
 10
1355
 20
75
  0
POINT
  8
_0-f_
 62
    9
 10
790
 20
120
  0
POINT
  8
_0-f_
 62
    9
 10
872.5
 20
142.5
  0
POINT
  8
_0-f_
 62
    9
 10
872.5
 20
97.5
  0
TEXT
  8
_0-f_
 62
    7
 10
690
 20
165
 40
15
 41
0.6666666666666666
 50
0
  1
DESIGNER
  0
TEXT
  8
_0-f_
 62
    7
 10
790
 20
165
 40
15
 41
0.6666666666666666
 50
0
  1
図面サイズ　SIZU
  0
POINT
  8
_0-f_
 62
    9
 10
965
 20
122.5
  0
TEXT
  8
_0-f_
 62
    7
 10
965
 20
165
 40
15
 41
0.6666666666666666
 50
0
  1
表面処理　SURFACE TREATMENT
  0
TEXT
  8
_0-f_
 62
    7
 10
1315
 20
165
 40
15
 41
0.6666666666666666
 50
0
  1
尺度　SCALE
  0
TEXT
  8
_0-f_
 62
    7
 10
855
 20
142.5
 40
17.5
 41
1
 50
0
  1
Ａ４
  0
TEXT
  8
_0-f_
 62
    7
 10
980
 20
142.5
 40
17.5
 41
1
 50
0
  1
別記
  0
TEXT
  8
_0-f_
 62
    7
 10
965
 20
122.5
 40
15
 41
0.6666666666666666
 50
0
  1
図面名　TITLE
  0
TEXT
  8
_0-f_
 62
    7
 10
790
 20
120
 40
15
 41
0.6666666666666666
 50
0
  1
日付　DATE
  0
TEXT
  8
_0-f_
 62
    7
 10
710
 20
97.5
 40
25
 41
1
 50
0
  1
玉置
  0
TEXT
  8
_0-f_
 62
    7
 10
852.5
 20
80
 40
10
 41
1
 50
0
  1
DRAWING No
  0
TEXT
  8
_0-f_
 62
    7
 10
1355
 20
75
 40
15
 41
0.6666666666666666
 50
0
  1
ユニット
  0
TEXT
  8
_0-f_
 62
    7
 10
790
 20
72.5
 40
17.5
 41
0.7142857142857143
 50
0
  1
図　　番
  0
TEXT
  8
_0-f_
 62
    7
 10
580
 20
57.5
 40
30
 41
0.8333333333333333
 50
0
  1
株式会社アウス
  0
TEXT
  8
_0-f_
 62
    7
 10
520
 20
225
 40
17.5
 41
1
 50
0
  1
　
  0
TEXT
  8
_0-f_
 62
    7
 10
1375
 20
52.5
 40
17.5
 41
1
 50
0
  1
SB
  0
TEXT
  8
_0-f_
 62
    7
 10
811.875
 20
97.5
 40
17.5
 41
1
 50
0
  1
2019.01.31.
  0
CIRCLE
  8
_0-5_
  6
CONTINUOUS
 62
    7
 10
210.00000000000006
 20
755
 40
16
  0
CIRCLE
  8
_0-5_
  6
CONTINUOUS
 62
    7
 10
210.00000000000006
 20
755
 40
10.5
  0
CIRCLE
  8
_0-5_
  6
CONTINUOUS
 62
    7
 10
210.00000000000006
 20
755
 40
7.5
  0
LINE
  8
_0-5_
  6
CONTINUOUS
 62
    7
 10
220.06230600000004
 20
758.00000000000011
 11
216.87386400000003
 21
758.00000000000011
  0
LINE
  8
_0-5_
  6
CONTINUOUS
 62
    7
 10
220.39230500000008
 20
756.5
 11
218.36660000000009
 21
756.5
  0
ARC
  8
_0-5_
  6
CONTINUOUS
 62
    7
 10
210.00000000000006
 20
755
 40
8.5
 50
169.83575099999999
 51
10.164249000000041
  0
LINE
  8
_0-5_
  6
CONTINUOUS
 62
    7
 10
201.63340000000005
 20
756.5
 11
199.60769499999998
 21
756.5
  0
LINE
  8
_0-5_
  6
CONTINUOUS
 62
    7
 10
203.12613600000006
 20
758.00000000000011
 11
199.93769400000005
 21
758.00000000000011
  0
LINE
  8
_0-5_
  6
CONTINUOUS
 62
    7
 10
474.80000000000007
 20
771
 11
476.80000000000001
 21
771
  0
LINE
  8
_0-5_
  6
CONTINUOUS
 62
    7
 10
474.80000000000007
 20
771
 11
474.80000000000007
 21
739
  0
LINE
  8
_0-5_
  6
CONTINUOUS
 62
    7
 10
472.80000000000001
 20
765.5
 11
474.80000000000007
 21
771
  0
LINE
  8
_0-5_
  6
CONTINUOUS
 62
    7
 10
472.80000000000001
 20
765.5
 11
472.80000000000001
 21
744.5
  0
LINE
  8
_0-5_
  6
CONTINUOUS
 62
    7
 10
468.29999999999995
 20
765.5
 11
472.80000000000001
 21
765.5
  0
LINE
  8
_0-5_
  6
CONTINUOUS
 62
    7
 10
468.29999999999995
 20
765.5
 11
468.29999999999995
 21
744.5
  0
ARC
  8
_0-5_
  6
CONTINUOUS
 62
    7
 10
470.55000000000001
 20
754.23749999999995
 40
2.2625000000000002
 50
353.974425
 51
186.02557499999998
  0
LINE
  8
_0-5_
  6
CONTINUOUS
 62
    7
 10
468.29999999999995
 20
758
 11
472.80000000000001
 21
758
  0
ARC
  8
_0-5_
  6
CONTINUOUS
 62
    7
 10
472.28097500000001
 20
742.63424499999996
 40
4.3964990000000004
 50
83.220185000000001
 51
154.88902300000001
  0
LINE
  8
_0-5_
  6
CONTINUOUS
 62
    7
 10
472.80000000000001
 20
744.5
 11
474.80000000000007
 21
739
  0
LINE
  8
_0-5_
  6
CONTINUOUS
 62
    7
 10
474.80000000000007
 20
739
 11
476.80000000000001
 21
739
  0
LINE
  8
_0-5_
  6
CONTINUOUS
 62
    7
 10
476.80000000000001
 20
771
 11
476.80000000000001
 21
739
  0
LINE
  8
_0-5_
  6
PHANTOM2
 62
    4
 10
468.29999999999995
 20
758.04997200000003
 11
460.07265799999999
 21
760.29717600000004
  0
ARC
  8
_0-5_
  6
PHANTOM2
 62
    4
 10
456.68049400000001
 20
756.47553000000005
 40
5.109967000000001
 50
342.08605299999999
 51
48.407150999999985
  0
LINE
  8
_0-5_
  6
PHANTOM2
 62
    4
 10
468.29999999999995
 20
752.95080100000007
 11
461.54272700000001
 21
754.90376400000002
  0
ARC
  8
_0-5_
  6
CONTINUOUS
 62
    7
 10
481.36250000000007
 20
755
 40
15.0625
 50
150.13716600000001
 51
209.86283399999999
  0
LINE
  8
_0-5_
  6
CONTINUOUS
 62
    7
 10
226.00000000000009
 20
532
 11
226.00000000000009
 21
530
  0
LINE
  8
_0-5_
  6
CONTINUOUS
 62
    7
 10
226.00000000000009
 20
532
 11
194.00000000000006
 21
532
  0
LINE
  8
_0-5_
  6
CONTINUOUS
 62
    7
 10
220.50000000000006
 20
534
 11
226.00000000000009
 21
532
  0
LINE
  8
_0-5_
  6
CONTINUOUS
 62
    7
 10
220.50000000000006
 20
534
 11
199.50000000000011
 21
534
  0
LINE
  8
_0-5_
  6
CONTINUOUS
 62
    7
 10
220.50000000000006
 20
538.5
 11
199.50000000000011
 21
538.5
  0
ARC
  8
_0-5_
  6
CONTINUOUS
 62
    7
 10
197.63424500000008
 20
534.51902500000006
 40
4.3964990000000004
 50
353.22018500000001
 51
64.889022999999995
  0
LINE
  8
_0-5_
  6
CONTINUOUS
 62
    7
 10
199.50000000000011
 20
534
 11
194.00000000000006
 21
532
  0
LINE
  8
_0-5_
  6
CONTINUOUS
 62
    7
 10
194.00000000000006
 20
532
 11
194.00000000000006
 21
530
  0
LINE
  8
_0-5_
  6
CONTINUOUS
 62
    7
 10
226.00000000000009
 20
530
 11
194.00000000000006
 21
530
  0
ARC
  8
_0-5_
  6
CONTINUOUS
 62
    7
 10
222.36575500000009
 20
534.51902500000006
 40
4.3964990000000004
 50
115.11097699999999
 51
186.77981499999999
  0
ARC
  8
_0-5_
  6
CONTINUOUS
 62
    7
 10
210.00000000000006
 20
525.4375
 40
15.0625
 50
60.137166000000015
 51
119.86283399999998
  0
LINE
  8
_0-0_
  6
CONTINUOUS
 62
    7
 10
210.00000000000006
 20
540.5
 11
213.88228567653789
 21
554.98888739433607
  0
LINE
  8
_0-0_
  6
CONTINUOUS
 62
    7
 10
210.00000000000006
 20
540.5
 11
220.6066017177983
 21
551.1066017177983
  0
CIRCLE
  8
_0-0_
  6
CONTINUOUS
 62
    7
 10
232.80533563299025
 20
580
 40
15
  0
TEXT
  8
_0-0_
 62
    7
 10
220.30533563299025
 20
567.49999999999989
 40
25
 41
1
 50
0
  1
５
  0
LINE
  8
_0-0_
  6
CONTINUOUS
 62
    7
 10
210.00000000000006
 20
540.5
 11
225.30533563299025
 21
567.00961894323336
  0
TEXT
  8
_0-f_
 62
    7
 10
995
 20
420
 40
20
 41
1
 50
0
  1
番号
  0
TEXT
  8
_0-f_
 62
    7
 10
1065
 20
420
 40
20
 41
1
 50
0
  1
部　材　名
  0
TEXT
  8
_0-f_
 62
    7
 10
1205
 20
420
 40
20
 41
1
 50
0
  1
材質
  0
TEXT
  8
_0-f_
 62
    7
 10
1315
 20
420
 40
20
 41
1
 50
0
  1
備考
  0
TEXT
  8
_0-f_
 62
    7
 10
1005
 20
390
 40
20
 41
1
 50
0
  1
１
  0
TEXT
  8
_0-f_
 62
    7
 10
1005
 20
360
 40
20
 41
1
 50
0
  1
２
  0
TEXT
  8
_0-f_
 62
    7
 10
1005
 20
330
 40
20
 41
1
 50
0
  1
３
  0
POINT
  8
_0-f_
 62
    9
 10
1015
 20
420
  0
POINT
  8
_0-f_
 62
    9
 10
1015
 20
390
  0
POINT
  8
_0-f_
 62
    9
 10
1015
 20
360
  0
LINE
  8
_0-f_
  6
CONTINUOUS
 62
    7
 10
990
 20
445
 11
1410
 21
445
  0
LINE
  8
_0-f_
  6
CONTINUOUS
 62
    7
 10
990
 20
415
 11
1410
 21
415
  0
LINE
  8
_0-f_
  6
CONTINUOUS
 62
    7
 10
990
 20
385
 11
1410
 21
385
  0
LINE
  8
_0-f_
  6
CONTINUOUS
 62
    7
 10
990
 20
355
 11
1410
 21
355
  0
POINT
  8
_0-f_
 62
    9
 10
1115
 20
420
  0
POINT
  8
_0-f_
 62
    9
 10
1115
 20
390
  0
POINT
  8
_0-f_
 62
    9
 10
1115
 20
360
  0
POINT
  8
_0-f_
 62
    9
 10
1335
 20
360
  0
POINT
  8
_0-f_
 62
    9
 10
1335
 20
390
  0
POINT
  8
_0-f_
 62
    9
 10
1335
 20
420
  0
POINT
  8
_0-f_
 62
    9
 10
1225
 20
420
  0
POINT
  8
_0-f_
 62
    9
 10
1225
 20
390
  0
POINT
  8
_0-f_
 62
    9
 10
1225
 20
360
  0
POINT
  8
_0-f_
 62
    9
 10
1015
 20
330
  0
LINE
  8
_0-f_
  6
CONTINUOUS
 62
    7
 10
990
 20
325
 11
1410
 21
325
  0
POINT
  8
_0-f_
 62
    9
 10
1115
 20
330
  0
POINT
  8
_0-f_
 62
    9
 10
1335
 20
330
  0
POINT
  8
_0-f_
 62
    9
 10
1225
 20
330
  0
POINT
  8
_0-f_
 62
    9
 10
1015
 20
300
  0
LINE
  8
_0-f_
  6
CONTINUOUS
 62
    7
 10
990
 20
295
 11
1410
 21
295
  0
POINT
  8
_0-f_
 62
    9
 10
1115
 20
300
  0
POINT
  8
_0-f_
 62
    9
 10
1335
 20
300
  0
POINT
  8
_0-f_
 62
    9
 10
1225
 20
300
  0
POINT
  8
_0-f_
 62
    9
 10
1015
 20
270
  0
LINE
  8
_0-f_
  6
CONTINUOUS
 62
    7
 10
990
 20
265
 11
1410
 21
265
  0
POINT
  8
_0-f_
 62
    9
 10
1115
 20
270
  0
POINT
  8
_0-f_
 62
    9
 10
1335
 20
270
  0
POINT
  8
_0-f_
 62
    9
 10
1225
 20
270
  0
TEXT
  8
_0-f_
 62
    7
 10
1005
 20
300
 40
20
 41
1
 50
0
  1
４
  0
TEXT
  8
_0-f_
 62
    7
 10
1005
 20
270
 40
20
 41
1
 50
0
  1
５
  0
TEXT
  8
_0-f_
 62
    7
 10
1105
 20
390
 40
20
 41
1
 50
0
  1
扉
  0
TEXT
  8
_0-f_
 62
    7
 10
1095
 20
360
 40
20
 41
1
 50
0
  1
本体
  0
TEXT
  8
_0-f_
 62
    7
 10
1085
 20
330
 40
20
 41
1
 50
0
  1
裏底板
  0
TEXT
  8
_0-f_
 62
    7
 10
1095
 20
300
 40
20
 41
1
 50
0
  1
蝶番
  0
TEXT
  8
_0-f_
 62
    7
 10
1195
 20
390
 40
20
 41
1
 50
0
  1
SUS304
  0
TEXT
  8
_0-f_
 62
    7
 10
1195
 20
360
 40
20
 41
1
 50
0
  1
SUS304
  0
TEXT
  8
_0-f_
 62
    7
 10
1195
 20
330
 40
20
 41
1
 50
0
  1
SUS304
  0
TEXT
  8
_0-f_
 62
    7
 10
1195
 20
300
 40
20
 41
1
 50
0
  1
SUS304
  0
TEXT
  8
_0-f_
 62
    7
 10
1210
 20
270
 40
20
 41
1
 50
0
  1
ZDC
  0
TEXT
  8
_0-f_
 62
    7
 10
1315
 20
390
 40
20
 41
1
 50
0
  1
t0.8
  0
TEXT
  8
_0-f_
 62
    7
 10
1315
 20
360
 40
20
 41
1
 50
0
  1
t0.8
  0
TEXT
  8
_0-f_
 62
    7
 10
1315
 20
330
 40
20
 41
1
 50
0
  1
t0.8
  0
POINT
  8
_0-f_
 62
    9
 10
1040
 20
495
  0
POINT
  8
_0-f_
 62
    9
 10
1040
 20
515
  0
TEXT
  8
_0-f_
 62
    7
 10
1040
 20
515
 40
17.5
 41
1
 50
0
  1
注１）表面は、ヘアーライン仕上げ。
  0
TEXT
  8
_0-f_
 62
    7
 10
1040
 20
495
 40
17.5
 41
1
 50
0
  1
　２）文字の色は、ブルー
  0
TEXT
  8
_0-f_
 62
    7
 10
1045
 20
270
 40
20
 41
1
 50
0
  1
リングハンドル
  0
LINE
  8
_0-f_
  6
CONTINUOUS
 62
    7
 10
990
 20
265
 11
990
 21
445
  0
LINE
  8
_0-f_
  6
CONTINUOUS
 62
    7
 10
1040
 20
265
 11
1040
 21
445
  0
LINE
  8
_0-f_
  6
CONTINUOUS
 62
    7
 10
1190
 20
265
 11
1190
 21
445
  0
LINE
  8
_0-f_
  6
CONTINUOUS
 62
    7
 10
1260
 20
265
 11
1260
 21
445
  0
LINE
  8
_0-f_
  6
CONTINUOUS
 62
    7
 10
1410
 20
265
 11
1410
 21
445
  0
TEXT
  8
_0-f_
 62
    7
 10
1325
 20
142.5
 40
17.5
 41
1
 50
0
  1
FREE
  0
TEXT
  8
_0-f_
 62
    7
 10
980
 20
97.5
 40
22.5
 41
0.7333333333333332
 50
0
  1
ステンレス製散水栓ボックス（壁用・露出・軽量型・鍵無）
  0
TEXT
  8
_0-f_
 62
    7
 10
980
 20
52.5
 40
22.5
 41
1
 50
0
  1
ＳＷＲ６
  0
ENDSEC
  0
EOF
