  0
SECTION
  2
HEADER
  9
$ACADVER
  1
AC1009
  9
$INSBASE
 10
0
 20
0
 30
0
  9
$EXTMIN
 10
0
 20
0
  9
$EXTMAX
 10
1485
 20
1050
  9
$LIMMIN
 10
0
 20
0
  9
$LIMMAX
 10
1485
 20
1050
  9
$LTSCALE
 40
5
  0
ENDSEC
  0
SECTION
  2
TABLES
  0
TABLE
  2
LTYPE
 70
     9
  0
LTYPE
  2
CONTINUOUS
 70
    64
  3
実線
 72
    65
 73
     0
 40
0.0
  0
LTYPE
  2
DASHED1
 70
    64
  3
--  --  --  --  --  --  --  --  
 72
    65
 73
     2
 40
2.5
 49
1.25
 49
-1.25
  0
LTYPE
  2
DASHED2
 70
    64
  3
----    ----    ----    ----    
 72
    65
 73
     2
 40
5.0
 49
2.5
 49
-2.5
  0
LTYPE
  2
DASHED3
 70
    64
  3
------  ------  ------  ------  
 72
    65
 73
     2
 40
5.0
 49
3.75
 49
-1.25
  0
LTYPE
  2
CENTER1
 70
    64
  3
----- - ----- - ----- - ----- - 
 72
    65
 73
     4
 40
10.0
 49
6.25
 49
-1.25
 49
1.25
 49
-1.25
  0
LTYPE
  2
CENTER2
 70
    64
  3
----------  --  ----------  --  
 72
    65
 73
     4
 40
20.0
 49
12.5
 49
-2.5
 49
2.5
 49
-2.5
  0
LTYPE
  2
PHANTOM1
 70
    64
  3
--- - - --- - - --- - - --- - - 
 72
    65
 73
     6
 40
10.0
 49
3.25
 49
-1.25
 49
1.25
 49
-1.25
 49
1.25
 49
-1.25
  0
LTYPE
  2
PHANTOM2
 70
    64
  3
--------  -  -  --------  -  -  
 72
    65
 73
     6
 40
20.0
 49
10.0
 49
-2.5
 49
1.25
 49
-2.5
 49
1.25
 49
-2.5
  0
LTYPE
  2
DOT
 70
    64
  3
-   -   -   -   -   -   -   -   
 72
    65
 73
     2
 40
2.5
 49
0.625
 49
-1.875
  0
LTYPE
  2
DUMMY
 70
    64
  3
ダミー
 72
    65
 73
     0
 40
0.0
  0
LTYPE
  2
RAND1
 70
    64
  3
ランダム線1
 72
    65
 73
     4
 40
10.0
 49
1.0
 49
-2.0
 49
3.0
 49
-4.0
  0
LTYPE
  2
RAND2
 70
    64
  3
ランダム線2
 72
    65
 73
     4
 40
14.0
 49
2.0
 49
-3.0
 49
4.0
 49
-5.0
  0
LTYPE
  2
RAND3
 70
    64
  3
ランダム線3
 72
    65
 73
     4
 40
18.0
 49
3.0
 49
-4.0
 49
5.0
 49
-6.0
  0
LTYPE
  2
RAND4
 70
    64
  3
ランダム線4
 72
    65
 73
     4
 40
22.0
 49
4.0
 49
-5.0
 49
6.0
 49
-7.0
  0
LTYPE
  2
RAND5
 70
    64
  3
ランダム線5
 72
    65
 73
     4
 40
26.0
 49
5.0
 49
-6.0
 49
7.0
 49
-8.0
  0
LTYPE
  2
LONG1
 70
    64
  3
----------  --  ----------  --  
 72
    65
 73
     4
 40
40.0
 49
32.5
 49
-2.5
 49
2.5
 49
-2.5
  0
LTYPE
  2
LONG2
 70
    64
  3
--------  -  -  --------  -  -  
 72
    65
 73
     6
 40
40.0
 49
30.0
 49
-2.5
 49
1.25
 49
-2.5
 49
1.25
 49
-2.5
  0
LTYPE
  2
LONG3
 70
    64
  3
+++++++++++++++..+++++++++++++++
 72
    65
 73
     2
 40
40.0
 49
37.5
 49
-2.5
  0
LTYPE
  2
LONG4
 70
    64
  3
+++++++++++++++..+++++++++++++++
 72
    65
 73
     2
 40
80.0
 49
75.0
 49
-5.0
  0
LTYPE
  2
LONG5
 70
    64
  3
----------  --  ----------  --  
 72
    65
 73
     4
 40
60.0
 49
37.5
 49
-7.5
 49
7.5
 49
-7.5
  0
LTYPE
  2
dashed
 70
   64
  3
-------   -------------   ------
 72
   65
 73
    2
 40
7.5
 49
6
 49
-1.5
  0
LTYPE
  2
dashed_spaced
 70
   64
  3
----        --------        ----
 72
   65
 73
    2
 40
12
 49
6
 49
-6
  0
LTYPE
  2
long_dashed_dotted
 70
   64
  3
------------- --- --------------
 72
   65
 73
    4
 40
15.25
 49
12
 49
-1.5
 49
0.25
 49
-1.5
  0
LTYPE
  2
long_dashed_double-dotted
 70
   64
  3
----------- --- --- ------------
 72
   65
 73
    6
 40
17
 49
12
 49
-1.5
 49
0.25
 49
-1.5
 49
0.25
 49
-1.5
  0
LTYPE
  2
long_dashed_triplicate-dotted
 70
   64
  3
--------- --- --- --- ----------
 72
   65
 73
    8
 40
18.75
 49
12
 49
-1.5
 49
0.25
 49
-1.5
 49
0.25
 49
-1.5
 49
0.25
 49
-1.5
  0
LTYPE
  2
dotted
 70
   64
  3
   -       -       -       -    
 72
   65
 73
    2
 40
1.75
 49
0.25
 49
-1.5
  0
LTYPE
  2
chain
 70
   64
  3
-------------- -- --------------
 72
   65
 73
    4
 40
18.5
 49
12
 49
-1.5
 49
3.5
 49
-1.5
  0
LTYPE
  2
chain_double_dash
 70
   64
  3
------------ -- -- -------------
 72
   65
 73
    6
 40
23.5
 49
12
 49
-1.5
 49
3.5
 49
-1.5
 49
3.5
 49
-1.5
  0
LTYPE
  2
dashed_dotted
 70
   64
  3
-----------     -     ----------
 72
   65
 73
    4
 40
9.25
 49
6
 49
-1.5
 49
0.25
 49
-1.5
  0
LTYPE
  2
double-dashed_dotted
 70
   64
  3
------   -----------   -   -----
 72
   65
 73
    6
 40
16.75
 49
6
 49
-1.5
 49
6
 49
-1.5
 49
0.25
 49
-1.5
  0
LTYPE
  2
dashed_double-dotted
 70
   64
  3
---------    -    -    ---------
 72
   65
 73
    6
 40
11
 49
6
 49
-1.5
 49
0.25
 49
-1.5
 49
0.25
 49
-1.5
  0
LTYPE
  2
double-dashed_double-dotted
 70
   64
  3
-----   ---------   -   -   ----
 72
   65
 73
    8
 40
18.5
 49
6
 49
-1.5
 49
6
 49
-1.5
 49
0.25
 49
-1.5
 49
0.25
 49
-1.5
  0
LTYPE
  2
dashed_triplicate-dotted
 70
   64
  3
-------    -    -    -    ------
 72
   65
 73
    8
 40
12.75
 49
6
 49
-1.5
 49
0.25
 49
-1.5
 49
0.25
 49
-1.5
 49
0.25
 49
-1.5
  0
LTYPE
  2
double-dashed_triplicate-dotted
 70
   64
  3
-----  ---------  -  -  -  -----
 72
   65
 73
   10
 40
20.25
 49
6
 49
-1.5
 49
6
 49
-1.5
 49
0.25
 49
-1.5
 49
0.25
 49
-1.5
 49
0.25
 49
-1.5
  0
LTYPE
  2
undefined
 70
   64
  3
--------------------------------
 72
   65
 73
    0
 40
0
  0
LTYPE
  2
_
 70
   64
  3
                                
 72
   65
 73
    0
 40
0
  0
LTYPE
  2
__18
 70
   64
  3
                                
 72
   65
 73
    0
 40
0
  0
LTYPE
  2
__19
 70
   64
  3
                                
 72
   65
 73
    0
 40
0
  0
LTYPE
  2
__20
 70
   64
  3
                                
 72
   65
 73
    0
 40
0
  0
LTYPE
  2
__21
 70
   64
  3
                                
 72
   65
 73
    0
 40
0
  0
LTYPE
  2
__22
 70
   64
  3
                                
 72
   65
 73
    0
 40
0
  0
LTYPE
  2
__23
 70
   64
  3
                                
 72
   65
 73
    0
 40
0
  0
LTYPE
  2
__24
 70
   64
  3
                                
 72
   65
 73
    0
 40
0
  0
LTYPE
  2
__25
 70
   64
  3
                                
 72
   65
 73
    0
 40
0
  0
LTYPE
  2
__26
 70
   64
  3
                                
 72
   65
 73
    0
 40
0
  0
LTYPE
  2
__27
 70
   64
  3
                                
 72
   65
 73
    0
 40
0
  0
LTYPE
  2
__28
 70
   64
  3
                                
 72
   65
 73
    0
 40
0
  0
LTYPE
  2
__29
 70
   64
  3
                                
 72
   65
 73
    0
 40
0
  0
LTYPE
  2
__30
 70
   64
  3
                                
 72
   65
 73
    0
 40
0
  0
LTYPE
  2
__31
 70
   64
  3
                                
 72
   65
 73
    0
 40
0
  0
LTYPE
  2
__32
 70
   64
  3
                                
 72
   65
 73
    0
 40
0
  0
ENDTAB
  0
TABLE
  2
STYLE
  5
3
100
AcDbSymbolTable
 70
     1
  0
STYLE
  5
10
100
AcDbSymbolTableRecord
100
AcDbTextStyleTableRecord
  2
STANDARD
 70
     0
 40
0.0
 41
1.0
 50
0.0
 71
     0
 42
0.2
  3
txt
  4
bigfont.shx
  0
STYLE
  5
26
100
AcDbSymbolTableRecord
100
AcDbTextStyleTableRecord
  2
TATEGAKI
 70
    68
 40
0.0
 41
1.0
 50
0.0
 71
     0
 42
1.0
  3
txt
  4
bigfont.shx
  0
ENDTAB
  0
TABLE
  2
LAYER
 70
    7
  0
LAYER
  2
_0-0_
 70
   64
 62
    7
  6
CONTINUOUS
  0
LAYER
  2
_0-1_
 70
   64
 62
    7
  6
CONTINUOUS
  0
LAYER
  2
_0-2_
 70
   64
 62
    7
  6
CONTINUOUS
  0
LAYER
  2
_0-4_
 70
   64
 62
    7
  6
CONTINUOUS
  0
LAYER
  2
_0-5_
 70
   64
 62
    7
  6
CONTINUOUS
  0
LAYER
  2
_0-f_
 70
   64
 62
    7
  6
CONTINUOUS
  0
LAYER
  2
ADD_LINE
 70
   64
 62
    7
  6
CONTINUOUS
  0
ENDTAB
  0
ENDSEC
  0
SECTION
  2
BLOCKS
  0
ENDSEC
  0
SECTION
  2
ENTITIES
  0
LINE
  8
_0-0_
  6
CONTINUOUS
 62
    7
 10
810.74932625754354
 20
745
 11
847.75894520077702
 21
766.3675134594813
  0
LINE
  8
_0-f_
  6
CONTINUOUS
 62
    3
 10
50
 20
1000
 11
50
 21
50
  0
LINE
  8
_0-f_
  6
CONTINUOUS
 62
    3
 10
50
 20
50
 11
1435
 21
50
  0
LINE
  8
_0-f_
  6
CONTINUOUS
 62
    3
 10
1435
 20
50
 11
1435
 21
1000
  0
LINE
  8
_0-f_
  6
CONTINUOUS
 62
    3
 10
1435
 20
1000
 11
50
 21
1000
  0
LINE
  8
_0-f_
  6
CONTINUOUS
 62
    7
 10
485
 20
95
 11
1435
 21
95
  0
LINE
  8
_0-f_
  6
CONTINUOUS
 62
    7
 10
485
 20
185
 11
1435
 21
185
  0
LINE
  8
_0-f_
  6
CONTINUOUS
 62
    7
 10
485
 20
50
 11
485
 21
230
  0
LINE
  8
_0-f_
  6
CONTINUOUS
 62
    7
 10
485
 20
230
 11
1435
 21
230
  0
LINE
  8
_0-f_
  6
CONTINUOUS
 62
    7
 10
1350
 20
50
 11
1350
 21
95
  0
LINE
  8
_0-f_
  6
CONTINUOUS
 62
    7
 10
960
 20
95
 11
960
 21
230
  0
LINE
  8
_0-f_
  6
CONTINUOUS
 62
    7
 10
1310
 20
140
 11
1310
 21
230
  0
LINE
  8
_0-f_
  6
CONTINUOUS
 62
    7
 10
685
 20
95
 11
685
 21
185
  0
LINE
  8
_0-f_
  6
CONTINUOUS
 62
    7
 10
585
 20
95
 11
585
 21
185
  0
LINE
  8
_0-f_
  6
CONTINUOUS
 62
    7
 10
785
 20
140
 11
1435
 21
140
  0
LINE
  8
_0-f_
  6
CONTINUOUS
 62
    7
 10
785
 20
50
 11
785
 21
185
  0
TEXT
  8
_0-f_
 62
    7
 10
490
 20
210
 40
15
 41
0.6666666666666666
 50
0
  1
注
  0
TEXT
  8
_0-f_
 62
    7
 10
965
 20
210
 40
15
 41
0.6666666666666666
 50
0
  1
材質　MATERIAL
  0
POINT
  8
_0-f_
 62
    9
 10
520
 20
187.5
  0
POINT
  8
_0-f_
 62
    9
 10
1005
 20
187.5
  0
POINT
  8
_0-f_
 62
    9
 10
965
 20
210
  0
TEXT
  8
_0-f_
 62
    7
 10
1315
 20
210
 40
15
 41
0.6666666666666666
 50
0
  1
個数　QUANTITY
  0
TEXT
  8
_0-f_
 62
    7
 10
490
 20
165
 40
15
 41
0.6666666666666666
 50
0
  1
APPROVED
  0
TEXT
  8
_0-f_
 62
    7
 10
590
 20
165
 40
15
 41
0.6666666666666666
 50
0
  1
CHECKED
  0
TEXT
  8
_0-f_
 62
    7
 10
690
 20
165
 40
15
 41
0.6666666666666666
 50
0
  1
DESIGNER
  0
TEXT
  8
_0-f_
 62
    7
 10
790
 20
165
 40
15
 41
0.6666666666666666
 50
0
  1
図面サイズ　SIZU
  0
TEXT
  8
_0-f_
 62
    7
 10
790
 20
120
 40
15
 41
0.6666666666666666
 50
0
  1
日付　DATE
  0
TEXT
  8
_0-f_
 62
    7
 10
965
 20
165
 40
15
 41
0.6666666666666666
 50
0
  1
表面処理　SURFACE TREATMENT
  0
TEXT
  8
_0-f_
 62
    7
 10
1315
 20
165
 40
15
 41
0.6666666666666666
 50
0
  1
尺度　SCALE
  0
TEXT
  8
_0-f_
 62
    7
 10
790
 20
72.5
 40
17.5
 41
0.7142857142857143
 50
0
  1
図　　番
  0
TEXT
  8
_0-f_
 62
    7
 10
852.5
 20
80
 40
10
 41
1
 50
0
  1
DRAWING No
  0
TEXT
  8
_0-f_
 62
    7
 10
1005
 20
187.5
 40
17.5
 41
1
 50
0
  1
別記
  0
TEXT
  8
_0-f_
 62
    7
 10
980
 20
142.5
 40
17.5
 41
1
 50
0
  1
別記
  0
TEXT
  8
_0-f_
 62
    7
 10
1340
 20
187.5
 40
17.5
 41
1
 50
0
  1
別記
  0
TEXT
  8
_0-f_
 62
    7
 10
1355
 20
75
 40
15
 41
0.6666666666666666
 50
0
  1
ユニット
  0
TEXT
  8
_0-f_
 62
    7
 10
710
 20
97.5
 40
25
 41
1
 50
0
  1
玉置
  0
TEXT
  8
_0-f_
 62
    7
 10
580
 20
57.5
 40
30
 41
0.8333333333333333
 50
0
  1
株式会社アウス
  0
POINT
  8
_0-f_
 62
    9
 10
535
 20
97.5
  0
POINT
  8
_0-f_
 62
    9
 10
635
 20
97.5
  0
POINT
  8
_0-f_
 62
    9
 10
735
 20
97.5
  0
POINT
  8
_0-f_
 62
    9
 10
490
 20
165
  0
POINT
  8
_0-f_
 62
    9
 10
590
 20
165
  0
POINT
  8
_0-f_
 62
    9
 10
690
 20
165
  0
POINT
  8
_0-f_
 62
    9
 10
790
 20
165
  0
POINT
  8
_0-f_
 62
    9
 10
965
 20
165
  0
POINT
  8
_0-f_
 62
    9
 10
980
 20
142.5
  0
POINT
  8
_0-f_
 62
    9
 10
790
 20
72.5
  0
POINT
  8
_0-f_
 62
    9
 10
580
 20
57.5
  0
POINT
  8
_0-f_
 62
    9
 10
980
 20
52.5
  0
POINT
  8
_0-f_
 62
    9
 10
980
 20
97.5
  0
POINT
  8
_0-f_
 62
    9
 10
1325
 20
142.5
  0
POINT
  8
_0-f_
 62
    9
 10
1315
 20
165
  0
POINT
  8
_0-f_
 62
    9
 10
1315
 20
210
  0
POINT
  8
_0-f_
 62
    9
 10
1340
 20
187.5
  0
POINT
  8
_0-f_
 62
    9
 10
1375
 20
52.5
  0
POINT
  8
_0-f_
 62
    9
 10
1355
 20
75
  0
POINT
  8
_0-f_
 62
    9
 10
790
 20
120
  0
POINT
  8
_0-f_
 62
    9
 10
872.5
 20
142.5
  0
POINT
  8
_0-f_
 62
    9
 10
872.5
 20
97.5
  0
TEXT
  8
_0-f_
 62
    7
 10
855
 20
142.5
 40
17.5
 41
1
 50
0
  1
Ａ４
  0
TEXT
  8
_0-f_
 62
    7
 10
965
 20
122.5
 40
15
 41
0.6666666666666666
 50
0
  1
図面名　TITLE
  0
POINT
  8
_0-f_
 62
    9
 10
965
 20
122.5
  0
TEXT
  8
_0-f_
 62
    7
 10
520
 20
187.5
 40
17.5
 41
1
 50
0
  1
　
  0
LINE
  8
_0-1_
  6
CONTINUOUS
 62
    7
 10
270.99999550000757
 20
828.9999933597262
 11
488.99999838128554
 21
828.9999933597262
  0
LINE
  8
_0-1_
  6
CONTINUOUS
 62
    7
 10
270.99999550000757
 20
828.9999933597262
 11
270.99999550000757
 21
560.99999965334371
  0
LINE
  8
_0-1_
  6
CONTINUOUS
 62
    7
 10
488.99999838128554
 20
828.9999933597262
 11
488.99999838128554
 21
560.99999965334371
  0
LINE
  8
_0-1_
  6
CONTINUOUS
 62
    7
 10
488.99999838128554
 20
560.99999965334371
 11
270.99999550000757
 21
560.99999965334371
  0
TEXT
  8
_0-1_
 62
    7
 10
379.99999137051356
 20
754.99999650653513
 40
32
 41
1
 50
0
  1
散水栓
  7
TATEGAKI
  0
LINE
  8
_0-2_
  6
CONTINUOUS
 62
    7
 10
255
 20
845
 11
269.99998951485748
 21
829.9999882046103
  0
LINE
  8
_0-2_
  6
CONTINUOUS
 62
    7
 10
255
 20
845
 11
504.99998274102711
 21
845
  0
LINE
  8
_0-2_
  6
CONTINUOUS
 62
    7
 10
255
 20
845
 11
255
 21
544.99999301307002
  0
LINE
  8
_0-2_
  6
CONTINUOUS
 62
    7
 10
269.99998951485748
 20
829.9999882046103
 11
489.99999322616952
 21
829.9999882046103
  0
LINE
  8
_0-2_
  6
CONTINUOUS
 62
    7
 10
269.99998951485748
 20
829.9999882046103
 11
269.99998951485748
 21
560.00000480845972
  0
LINE
  8
_0-2_
  6
CONTINUOUS
 62
    7
 10
255
 20
544.99999301307002
 11
269.99998951485748
 21
560.00000480845972
  0
LINE
  8
_0-2_
  6
CONTINUOUS
 62
    7
 10
489.99999322616952
 20
560.00000480845972
 11
269.99998951485748
 21
560.00000480845972
  0
LINE
  8
_0-2_
  6
CONTINUOUS
 62
    7
 10
504.99998274102711
 20
544.99999301307002
 11
255
 21
544.99999301307002
  0
LINE
  8
_0-2_
  6
CONTINUOUS
 62
    7
 10
489.99999322616952
 20
560.00000480845972
 11
504.99998274102711
 21
544.99999301307002
  0
LINE
  8
_0-2_
  6
CONTINUOUS
 62
    7
 10
504.99998274102711
 20
845
 11
504.99998274102711
 21
544.99999301307002
  0
LINE
  8
_0-2_
  6
CONTINUOUS
 62
    7
 10
489.99999322616952
 20
829.9999882046103
 11
489.99999322616952
 21
560.00000480845972
  0
LINE
  8
_0-2_
  6
CONTINUOUS
 62
    7
 10
504.99998274102711
 20
845
 11
489.99999322616952
 21
829.9999882046103
  0
LINE
  8
_0-2_
  6
CONTINUOUS
 62
    7
 10
660.74932582184942
 20
845
 11
810.74932625754354
 21
845
  0
LINE
  8
_0-2_
  6
CONTINUOUS
 62
    7
 10
660.74932582184942
 20
845
 11
660.74932582184942
 21
544.99999301307002
  0
LINE
  8
_0-2_
  6
CONTINUOUS
 62
    7
 10
810.74932625754354
 20
845
 11
810.74932625754354
 21
544.99999301307002
  0
LINE
  8
_0-2_
  6
CONTINUOUS
 62
    7
 10
660.74932582184942
 20
544.99999301307002
 11
810.74932625754354
 21
544.99999301307002
  0
LINE
  8
_0-4_
  6
DASHED2
 62
    4
 10
475.50000113375404
 20
804.99998339931562
 11
475.50000113375404
 21
828.9999933597262
  0
LINE
  8
_0-4_
  6
DASHED2
 62
    4
 10
475.50000113375404
 20
804.99998339931562
 11
482.49998732847467
 21
804.99998339931562
  0
LINE
  8
_0-4_
  6
DASHED2
 62
    4
 10
482.49998732847467
 20
804.99998339931562
 11
482.49998732847467
 21
828.9999933597262
  0
LINE
  8
_0-4_
  6
DASHED2
 62
    4
 10
482.49998732847467
 20
584.99998733322218
 11
482.49998732847467
 21
560.99999965334371
  0
LINE
  8
_0-4_
  6
DASHED2
 62
    4
 10
475.50000113375404
 20
584.99998733322218
 11
475.50000113375404
 21
560.99999965334371
  0
LINE
  8
_0-4_
  6
DASHED2
 62
    4
 10
482.49998732847467
 20
584.99998733322218
 11
475.50000113375404
 21
584.99998733322218
  0
LINE
  8
_0-5_
  6
CONTINUOUS
 62
    7
 10
307.99999414524154
 20
729.99998318146845
 11
307.99999414524154
 21
659.99998755106913
  0
LINE
  8
_0-5_
  6
CONTINUOUS
 62
    7
 10
283.99999532509702
 20
729.99998318146845
 11
283.99999532509702
 21
659.99998755106913
  0
LINE
  8
_0-5_
  6
CONTINUOUS
 62
    7
 10
283.99999532509702
 20
659.99998755106913
 11
307.99999414524154
 21
659.99998755106913
  0
LINE
  8
_0-5_
  6
CONTINUOUS
 62
    7
 10
306.49999073764934
 20
728.50001319467469
 11
306.49999073764934
 21
661.50000209892733
  0
LINE
  8
_0-5_
  6
CONTINUOUS
 62
    7
 10
285.49999873268916
 20
728.50001319467469
 11
285.49999873268916
 21
661.50000209892733
  0
LINE
  8
_0-5_
  6
CONTINUOUS
 62
    7
 10
285.49999873268916
 20
661.50000209892733
 11
306.49999073764934
 21
661.50000209892733
  0
LINE
  8
_0-5_
  6
CONTINUOUS
 62
    7
 10
306.49999073764934
 20
661.50000209892733
 11
307.99999414524154
 21
659.99998755106913
  0
LINE
  8
_0-5_
  6
CONTINUOUS
 62
    7
 10
285.49999873268916
 20
661.50000209892733
 11
283.99999532509702
 21
659.99998755106913
  0
LINE
  8
_0-5_
  6
CONTINUOUS
 62
    7
 10
285.49999873268916
 20
728.50001319467469
 11
283.99999532509702
 21
729.99998318146845
  0
LINE
  8
_0-5_
  6
CONTINUOUS
 62
    7
 10
287.99999698516547
 20
718.99999532667948
 11
303.99999248517304
 21
718.99999532667948
  0
LINE
  8
_0-5_
  6
CONTINUOUS
 62
    7
 10
303.99999248517304
 20
718.99999532667948
 11
303.99999248517304
 21
669.99998056097411
  0
LINE
  8
_0-5_
  6
CONTINUOUS
 62
    7
 10
287.99999698516547
 20
669.99998056097411
 11
287.99999698516547
 21
718.99999532667948
  0
LINE
  8
_0-5_
  6
CONTINUOUS
 62
    7
 10
289.99999781519966
 20
707.0000126270063
 11
289.99999781519966
 21
712.5000065544009
  0
LINE
  8
_0-5_
  6
CONTINUOUS
 62
    7
 10
301.99999165513884
 20
715.49999108905297
 11
301.99999165513884
 21
714.99997138607887
  0
LINE
  8
_0-5_
  6
CONTINUOUS
 62
    7
 10
287.99999698516547
 20
704.999978376174
 11
303.99999248517304
 21
704.999978376174
  0
LINE
  8
_0-5_
  6
CONTINUOUS
 62
    7
 10
287.99999698516547
 20
716.74988438276341
 11
303.99999248517304
 21
716.74988438276341
  0
LINE
  8
_0-5_
  6
CONTINUOUS
 62
    7
 10
287.99999698516547
 20
718.62180557361455
 11
303.99999248517304
 21
718.62180557361455
  0
LINE
  8
_0-5_
  6
CONTINUOUS
 62
    7
 10
289.99999781519966
 20
715.49999108905297
 11
301.99999165513884
 21
715.49999108905297
  0
LINE
  8
_0-5_
  6
CONTINUOUS
 62
    7
 10
289.99999781519966
 20
714.99997138607887
 11
301.99999165513884
 21
714.99997138607887
  0
LINE
  8
_0-5_
  6
CONTINUOUS
 62
    7
 10
289.99999781519966
 20
713.99997654119488
 11
301.99999165513884
 21
713.99997654119488
  0
LINE
  8
_0-5_
  6
CONTINUOUS
 62
    7
 10
289.99999781519966
 20
713.500001399285
 11
301.99999165513884
 21
713.500001399285
  0
LINE
  8
_0-5_
  6
CONTINUOUS
 62
    7
 10
289.99999781519966
 20
712.5000065544009
 11
301.99999165513884
 21
712.5000065544009
  0
LINE
  8
_0-5_
  6
CONTINUOUS
 62
    7
 10
289.99999781519966
 20
714.99997138607887
 11
289.99999781519966
 21
715.49999108905297
  0
LINE
  8
_0-5_
  6
CONTINUOUS
 62
    7
 10
301.99999165513884
 20
713.99997654119488
 11
301.99999165513884
 21
713.500001399285
  0
LINE
  8
_0-5_
  6
CONTINUOUS
 62
    7
 10
289.99999781519966
 20
713.500001399285
 11
289.99999781519966
 21
713.99997654119488
  0
LINE
  8
_0-5_
  6
CONTINUOUS
 62
    7
 10
301.99999165513884
 20
712.5000065544009
 11
301.99999165513884
 21
707.0000126270063
  0
LINE
  8
_0-5_
  6
CONTINUOUS
 62
    7
 10
289.99999781519966
 20
707.0000126270063
 11
301.99999165513884
 21
707.0000126270063
  0
LINE
  8
_0-5_
  6
CONTINUOUS
 62
    7
 10
287.99999698516547
 20
669.99998056097411
 11
303.99999248517304
 21
669.99998056097411
  0
LINE
  8
_0-5_
  6
CONTINUOUS
 62
    7
 10
307.99999414524154
 20
729.99998318146845
 11
306.49999073764934
 21
728.50001319467469
  0
LINE
  8
_0-5_
  6
CONTINUOUS
 62
    7
 10
285.49999873268916
 20
728.50001319467469
 11
306.49999073764934
 21
728.50001319467469
  0
LINE
  8
_0-5_
  6
CONTINUOUS
 62
    7
 10
283.99999532509702
 20
729.99998318146845
 11
307.99999414524154
 21
729.99998318146845
  0
LINE
  8
_0-5_
  6
CONTINUOUS
 62
    7
 10
658.24931642910713
 20
704.999978376174
 11
655.06239822954296
 21
715.69877799708001
  0
LINE
  8
_0-5_
  6
CONTINUOUS
 62
    7
 10
659.749286415901
 20
729.99998318146845
 11
660.74932582184942
 21
729.99998318146845
  0
LINE
  8
_0-5_
  6
CONTINUOUS
 62
    7
 10
658.24931642910713
 20
728.50001319467469
 11
659.749286415901
 21
729.99998318146845
  0
LINE
  8
_0-5_
  6
CONTINUOUS
 62
    7
 10
659.749286415901
 20
659.99998755106913
 11
660.74932582184942
 21
659.99998755106913
  0
LINE
  8
_0-5_
  6
CONTINUOUS
 62
    7
 10
658.24931642910713
 20
661.50000209892733
 11
659.749286415901
 21
659.99998755106913
  0
LINE
  8
_0-5_
  6
CONTINUOUS
 62
    7
 10
660.74932582184942
 20
729.99998318146845
 11
660.74932582184942
 21
659.99998755106913
  0
LINE
  8
_0-5_
  6
CONTINUOUS
 62
    7
 10
659.749286415901
 20
729.99998318146845
 11
659.749286415901
 21
659.99998755106913
  0
LINE
  8
_0-5_
  6
CONTINUOUS
 62
    7
 10
658.24931642910713
 20
728.50001319467469
 11
658.24931642910713
 21
661.50000209892733
  0
ARC
  8
_0-5_
  6
CONTINUOUS
 62
    7
 10
659.09245632750969
 20
713.61519175060732
 40
5.0771000271956872
 50
99.559310913085923
 51
131.74166870117185
  0
ARC
  8
_0-5_
  6
CONTINUOUS
 62
    7
 10
656.49998272625908
 20
716.12696526433581
 40
1.4999999262590333
 50
121.67852783203126
 51
196.58747863769531
  0
LINE
  8
_0-5_
  6
PHANTOM2
 62
    4
 10
631.98625053558908
 20
692.58981107923864
 11
652.02712133193245
 21
702.41066861049148
  0
LINE
  8
_0-5_
  6
PHANTOM2
 62
    4
 10
637.1901139099034
 20
686.7877822577384
 11
646.75737442398963
 21
691.47614095921995
  0
LINE
  8
_0-5_
  6
PHANTOM2
 62
    4
 10
647.90847583805521
 20
697.60832270642504
 11
653.12724488839149
 21
700.16572675003897
  0
LINE
  8
_0-5_
  6
PHANTOM2
 62
    4
 10
635.33869080864929
 20
687.22332210061086
 11
631.80914258536461
 21
691.83699645825618
  0
LINE
  8
_0-5_
  6
PHANTOM2
 62
    4
 10
647.57711976361293
 20
693.06826322707161
 11
647.08873049843191
 21
696.01615587750894
  0
ARC
  8
_0-5_
  6
PHANTOM2
 62
    4
 10
646.09729137790123
 20
692.82308825106554
 40
1.4999999262590333
 50
296.10676574707031
 51
9.4075622558593821
  0
ARC
  8
_0-5_
  6
PHANTOM2
 62
    4
 10
636.53005314434722
 20
688.13472954958434
 40
1.4999999262590333
 50
217.41667175292969
 51
296.10676574707031
  0
ARC
  8
_0-5_
  6
PHANTOM2
 62
    4
 10
648.56855888414339
 20
696.26133085351489
 40
1.4999999262590333
 50
116.10679626464844
 51
189.40751647949222
  0
ARC
  8
_0-5_
  6
PHANTOM2
 62
    4
 10
632.20627079077462
 20
692.14081379493541
 40
0.4999999899252325
 50
116.10679626464844
 51
217.41667175292972
  0
POINT
  8
_0-0_
 62
    2
 10
454.99998274102711
 20
745
  0
LINE
  8
_0-0_
  6
CONTINUOUS
 62
    7
 10
504.99998274102711
 20
645
 11
515.6065844588253
 21
655.60660171779818
  0
LINE
  8
_0-0_
  6
CONTINUOUS
 62
    7
 10
504.99998274102711
 20
645
 11
519.48887013536307
 21
648.88228567653778
  0
LINE
  8
_0-0_
  6
CONTINUOUS
 62
    7
 10
810.74932625754354
 20
745
 11
821.35592797534173
 21
755.6066017177983
  0
LINE
  8
_0-0_
  6
CONTINUOUS
 62
    7
 10
810.74932625754354
 20
745
 11
825.23821365187951
 21
748.88228567653778
  0
LINE
  8
_0-0_
  6
CONTINUOUS
 62
    7
 10
283.99999532509702
 20
694.99999650653513
 11
269.511107930761
 21
698.88228218307279
  0
LINE
  8
_0-0_
  6
CONTINUOUS
 62
    7
 10
283.99999532509702
 20
694.99999650653513
 11
273.39339360729878
 21
705.6065982243332
  0
LINE
  8
_0-0_
  6
CONTINUOUS
 62
    7
 10
478.99999423111439
 20
560.99999965334371
 11
489.60659594891251
 21
550.39339793554541
  0
LINE
  8
_0-0_
  6
CONTINUOUS
 62
    7
 10
478.99999423111439
 20
560.99999965334371
 11
482.88227990765216
 21
546.51111225900763
  0
CIRCLE
  8
_0-0_
  6
CONTINUOUS
 62
    7
 10
555
 20
802.73503688343521
 40
15
  0
TEXT
  8
_0-0_
 62
    7
 10
542.5
 20
790.23503688343521
 40
25
 41
1
 50
0
  1
１
  0
CIRCLE
  8
_0-0_
  6
CONTINUOUS
 62
    7
 10
555
 20
673.86752342395403
 40
15
  0
TEXT
  8
_0-0_
 62
    7
 10
542.5
 20
661.36752342395414
 40
25
 41
1
 50
0
  1
２
  0
CIRCLE
  8
_0-0_
  6
CONTINUOUS
 62
    7
 10
860.74932625754354
 20
773.8675134594813
 40
15
  0
TEXT
  8
_0-0_
 62
    7
 10
848.24932625754354
 20
761.3675134594813
 40
25
 41
1
 50
0
  1
３
  0
CIRCLE
  8
_0-0_
  6
CONTINUOUS
 62
    7
 10
517.10511179748755
 20
495
 40
15
  0
TEXT
  8
_0-0_
 62
    7
 10
504.60511179748755
 20
482.5
 40
25
 41
1
 50
0
  1
４
  0
CIRCLE
  8
_0-0_
  6
CONTINUOUS
 62
    7
 10
205
 20
740.61066507345902
 40
15
  0
TEXT
  8
_0-0_
 62
    7
 10
192.5
 20
728.11066507345902
 40
25
 41
1
 50
0
  1
５
  0
LINE
  8
_0-0_
  6
CONTINUOUS
 62
    7
 10
283.99999532509702
 20
694.99999650653513
 11
217.99038105676658
 21
733.1106650734589
  0
LINE
  8
_0-0_
  6
CONTINUOUS
 62
    7
 10
454.99998274102711
 20
745
 11
542.00961894323336
 21
795.23503688343521
  0
LINE
  8
_0-0_
  6
CONTINUOUS
 62
    7
 10
504.99998274102711
 20
645
 11
542.00961894323336
 21
666.36752342395403
  0
LINE
  8
_0-0_
  6
CONTINUOUS
 62
    7
 10
478.99999423111439
 20
560.99999965334371
 11
509.60511179748755
 21
507.99038105676658
  0
LINE
  8
_0-0_
  6
CONTINUOUS
 62
    2
 10
270.99999550000757
 20
880
 11
285.48888289434359
 21
883.88228567653778
  0
LINE
  8
_0-0_
  6
CONTINUOUS
 62
    2
 10
270.99999550000757
 20
880
 11
285.48888289434359
 21
876.11771432346222
  0
LINE
  8
_0-0_
  6
CONTINUOUS
 62
    2
 10
488.99999838128554
 20
880
 11
474.51111098694952
 21
883.88228567653778
  0
LINE
  8
_0-0_
  6
CONTINUOUS
 62
    2
 10
488.99999838128554
 20
880
 11
474.51111098694952
 21
876.11771432346222
  0
LINE
  8
_0-0_
  6
CONTINUOUS
 62
    2
 10
270.99999550000757
 20
885
 11
270.99999550000757
 21
833.9999933597262
  0
LINE
  8
_0-0_
  6
CONTINUOUS
 62
    2
 10
488.99999838128554
 20
885
 11
488.99999838128554
 21
833.9999933597262
  0
LINE
  8
_0-0_
  6
CONTINUOUS
 62
    2
 10
270.99999550000757
 20
880
 11
488.99999838128554
 21
880
  0
TEXT
  8
_0-0_
 62
    7
 10
359.99999694064655
 20
882.5
 40
25
 41
1
 50
0
  1
218
  0
LINE
  8
_0-0_
  6
CONTINUOUS
 62
    2
 10
255
 20
915
 11
269.48888739433596
 21
918.88228567653778
  0
LINE
  8
_0-0_
  6
CONTINUOUS
 62
    2
 10
255
 20
915
 11
269.48888739433596
 21
911.11771432346222
  0
LINE
  8
_0-0_
  6
CONTINUOUS
 62
    2
 10
504.99998274102711
 20
915
 11
490.51109534669109
 21
918.88228567653778
  0
LINE
  8
_0-0_
  6
CONTINUOUS
 62
    2
 10
504.99998274102711
 20
915
 11
490.51109534669109
 21
911.11771432346222
  0
LINE
  8
_0-0_
  6
CONTINUOUS
 62
    2
 10
255
 20
920
 11
255
 21
850
  0
LINE
  8
_0-0_
  6
CONTINUOUS
 62
    2
 10
504.99998274102711
 20
920
 11
504.99998274102711
 21
850
  0
LINE
  8
_0-0_
  6
CONTINUOUS
 62
    2
 10
255
 20
915
 11
504.99998274102711
 21
915
  0
TEXT
  8
_0-0_
 62
    7
 10
359.99999137051356
 20
917.5
 40
25
 41
1
 50
0
  1
250
  0
LINE
  8
_0-0_
  6
CONTINUOUS
 62
    2
 10
660.74932582184942
 20
915
 11
675.23821321618561
 21
918.88228567653778
  0
LINE
  8
_0-0_
  6
CONTINUOUS
 62
    2
 10
660.74932582184942
 20
915
 11
675.23821321618561
 21
911.11771432346222
  0
LINE
  8
_0-0_
  6
CONTINUOUS
 62
    2
 10
810.74932625754354
 20
915
 11
796.26043886320758
 21
918.88228567653778
  0
LINE
  8
_0-0_
  6
CONTINUOUS
 62
    2
 10
810.74932625754354
 20
915
 11
796.26043886320758
 21
911.11771432346222
  0
LINE
  8
_0-0_
  6
CONTINUOUS
 62
    2
 10
660.74932582184942
 20
920
 11
660.74932582184942
 21
850
  0
LINE
  8
_0-0_
  6
CONTINUOUS
 62
    2
 10
810.74932625754354
 20
920
 11
810.74932625754354
 21
850
  0
LINE
  8
_0-0_
  6
CONTINUOUS
 62
    2
 10
660.74932582184942
 20
915
 11
810.74932625754354
 21
915
  0
TEXT
  8
_0-0_
 62
    7
 10
715.74932603969637
 20
917.5
 40
25
 41
1
 50
0
  1
150
  0
LINE
  8
_0-0_
  6
CONTINUOUS
 62
    2
 10
170
 20
560.99999965334371
 11
166.11771432346217
 21
575.48888704767978
  0
LINE
  8
_0-0_
  6
CONTINUOUS
 62
    2
 10
170
 20
560.99999965334371
 11
173.88228567653783
 21
575.48888704767978
  0
LINE
  8
_0-0_
  6
CONTINUOUS
 62
    2
 10
170
 20
828.9999933597262
 11
166.11771432346217
 21
814.51110596539024
  0
LINE
  8
_0-0_
  6
CONTINUOUS
 62
    2
 10
170
 20
828.9999933597262
 11
173.88228567653783
 21
814.51110596539024
  0
LINE
  8
_0-0_
  6
CONTINUOUS
 62
    2
 10
165
 20
560.99999965334371
 11
265.99999550000757
 21
560.99999965334371
  0
LINE
  8
_0-0_
  6
CONTINUOUS
 62
    2
 10
165
 20
828.9999933597262
 11
265.99999550000757
 21
828.9999933597262
  0
LINE
  8
_0-0_
  6
CONTINUOUS
 62
    2
 10
170
 20
560.99999965334371
 11
170
 21
828.9999933597262
  0
TEXT
  8
_0-0_
 62
    7
 10
167.5
 20
674.9999965065349
 40
25
 41
1
 50
90
  1
268
  0
LINE
  8
_0-0_
  6
CONTINUOUS
 62
    2
 10
135
 20
544.99999301307002
 11
131.11771432346217
 21
559.48888040740599
  0
LINE
  8
_0-0_
  6
CONTINUOUS
 62
    2
 10
135
 20
544.99999301307002
 11
138.88228567653783
 21
559.48888040740599
  0
LINE
  8
_0-0_
  6
CONTINUOUS
 62
    2
 10
135
 20
845
 11
131.11771432346217
 21
830.51111260566404
  0
LINE
  8
_0-0_
  6
CONTINUOUS
 62
    2
 10
135
 20
845
 11
138.88228567653783
 21
830.51111260566404
  0
LINE
  8
_0-0_
  6
CONTINUOUS
 62
    2
 10
130
 20
544.99999301307002
 11
250
 21
544.99999301307002
  0
LINE
  8
_0-0_
  6
CONTINUOUS
 62
    2
 10
130
 20
845
 11
250
 21
845
  0
LINE
  8
_0-0_
  6
CONTINUOUS
 62
    2
 10
135
 20
544.99999301307002
 11
135
 21
845
  0
TEXT
  8
_0-0_
 62
    7
 10
132.5
 20
674.99999650653513
 40
25
 41
1
 50
90
  1
300
  0
TEXT
  8
_0-f_
 62
    7
 10
1040
 20
545
 40
20
 41
1
 50
0
  1
　　　指定色にて、焼付け塗装できます。
  0
TEXT
  8
_0-f_
 62
    7
 10
995
 20
420
 40
20
 41
1
 50
0
  1
番号
  0
TEXT
  8
_0-f_
 62
    7
 10
1005
 20
390
 40
20
 41
1
 50
0
  1
１
  0
TEXT
  8
_0-f_
 62
    7
 10
1005
 20
360
 40
20
 41
1
 50
0
  1
２
  0
POINT
  8
_0-f_
 62
    9
 10
1015
 20
420
  0
POINT
  8
_0-f_
 62
    9
 10
1015
 20
390
  0
POINT
  8
_0-f_
 62
    9
 10
1015
 20
360
  0
LINE
  8
_0-f_
  6
CONTINUOUS
 62
    7
 10
990
 20
445
 11
1410
 21
445
  0
LINE
  8
_0-f_
  6
CONTINUOUS
 62
    7
 10
990
 20
415
 11
1410
 21
415
  0
LINE
  8
_0-f_
  6
CONTINUOUS
 62
    7
 10
990
 20
385
 11
1410
 21
385
  0
LINE
  8
_0-f_
  6
CONTINUOUS
 62
    7
 10
990
 20
355
 11
1410
 21
355
  0
POINT
  8
_0-f_
 62
    9
 10
1115
 20
420
  0
POINT
  8
_0-f_
 62
    9
 10
1115
 20
390
  0
POINT
  8
_0-f_
 62
    9
 10
1115
 20
360
  0
POINT
  8
_0-f_
 62
    9
 10
1335
 20
360
  0
POINT
  8
_0-f_
 62
    9
 10
1335
 20
390
  0
POINT
  8
_0-f_
 62
    9
 10
1335
 20
420
  0
POINT
  8
_0-f_
 62
    9
 10
1225
 20
420
  0
POINT
  8
_0-f_
 62
    9
 10
1225
 20
390
  0
POINT
  8
_0-f_
 62
    9
 10
1225
 20
360
  0
POINT
  8
_0-f_
 62
    9
 10
1015
 20
330
  0
LINE
  8
_0-f_
  6
CONTINUOUS
 62
    7
 10
990
 20
325
 11
1410
 21
325
  0
POINT
  8
_0-f_
 62
    9
 10
1115
 20
330
  0
POINT
  8
_0-f_
 62
    9
 10
1335
 20
330
  0
POINT
  8
_0-f_
 62
    9
 10
1225
 20
330
  0
TEXT
  8
_0-f_
 62
    7
 10
1005
 20
330
 40
20
 41
1
 50
0
  1
３
  0
TEXT
  8
_0-f_
 62
    7
 10
1315
 20
420
 40
20
 41
1
 50
0
  1
備考
  0
TEXT
  8
_0-f_
 62
    7
 10
1205
 20
420
 40
20
 41
1
 50
0
  1
材質
  0
TEXT
  8
_0-f_
 62
    7
 10
1065
 20
420
 40
20
 41
1
 50
0
  1
部　材　名
  0
POINT
  8
_0-f_
 62
    9
 10
1015
 20
300
  0
LINE
  8
_0-f_
  6
CONTINUOUS
 62
    7
 10
990
 20
295
 11
1410
 21
295
  0
POINT
  8
_0-f_
 62
    9
 10
1115
 20
300
  0
POINT
  8
_0-f_
 62
    9
 10
1335
 20
300
  0
POINT
  8
_0-f_
 62
    9
 10
1225
 20
300
  0
POINT
  8
_0-f_
 62
    9
 10
1015
 20
270
  0
LINE
  8
_0-f_
  6
CONTINUOUS
 62
    7
 10
990
 20
265
 11
1410
 21
265
  0
POINT
  8
_0-f_
 62
    9
 10
1115
 20
270
  0
POINT
  8
_0-f_
 62
    9
 10
1335
 20
270
  0
POINT
  8
_0-f_
 62
    9
 10
1225
 20
270
  0
TEXT
  8
_0-f_
 62
    7
 10
1105
 20
390
 40
20
 41
1
 50
0
  1
扉
  0
TEXT
  8
_0-f_
 62
    7
 10
1095
 20
360
 40
20
 41
1
 50
0
  1
本体
  0
TEXT
  8
_0-f_
 62
    7
 10
1095
 20
330
 40
20
 41
1
 50
0
  1
背板
  0
TEXT
  8
_0-f_
 62
    7
 10
1085
 20
300
 40
20
 41
1
 50
0
  1
回転軸
  0
TEXT
  8
_0-f_
 62
    7
 10
1045
 20
270
 40
20
 41
0.875
 50
0
  1
小型平面ハンドル
  0
TEXT
  8
_0-f_
 62
    7
 10
1195
 20
390
 40
20
 41
1
 50
0
  1
SUS304
  0
TEXT
  8
_0-f_
 62
    7
 10
1195
 20
360
 40
20
 41
1
 50
0
  1
SUS304
  0
TEXT
  8
_0-f_
 62
    7
 10
1195
 20
330
 40
20
 41
1
 50
0
  1
SUS304
  0
TEXT
  8
_0-f_
 62
    7
 10
1195
 20
300
 40
20
 41
1
 50
0
  1
SUS304
  0
TEXT
  8
_0-f_
 62
    7
 10
1210
 20
270
 40
20
 41
1
 50
0
  1
ZDC
  0
TEXT
  8
_0-f_
 62
    7
 10
1325
 20
390
 40
20
 41
1
 50
0
  1
t3
  0
TEXT
  8
_0-f_
 62
    7
 10
1315
 20
360
 40
20
 41
1
 50
0
  1
t1.2
  0
TEXT
  8
_0-f_
 62
    7
 10
1315
 20
330
 40
20
 41
1
 50
0
  1
t1.2
  0
TEXT
  8
_0-f_
 62
    7
 10
1320
 20
300
 40
20
 41
1
 50
0
  1
φ4
  0
TEXT
  8
_0-f_
 62
    7
 10
1005
 20
300
 40
20
 41
1
 50
0
  1
４
  0
TEXT
  8
_0-f_
 62
    7
 10
1005
 20
270
 40
20
 41
1
 50
0
  1
５
  0
TEXT
  8
_0-f_
 62
    7
 10
1040
 20
620
 40
20
 41
1
 50
0
  1
※１）表面ヘアーライン仕上げ
  0
TEXT
  8
_0-f_
 62
    7
 10
1040
 20
595
 40
20
 41
1
 50
0
  1
※２）文字の色は、ブルー
  0
TEXT
  8
_0-f_
 62
    7
 10
1040
 20
570
 40
20
 41
1
 50
0
  1
※３）単品より、（社）日本塗料工業会の
  0
LINE
  8
_0-f_
  6
CONTINUOUS
 62
    7
 10
990
 20
265
 11
990
 21
445
  0
LINE
  8
_0-f_
  6
CONTINUOUS
 62
    7
 10
1040
 20
265
 11
1040
 21
445
  0
LINE
  8
_0-f_
  6
CONTINUOUS
 62
    7
 10
1190
 20
265
 11
1190
 21
445
  0
LINE
  8
_0-f_
  6
CONTINUOUS
 62
    7
 10
1260
 20
265
 11
1260
 21
445
  0
LINE
  8
_0-f_
  6
CONTINUOUS
 62
    7
 10
1410
 20
265
 11
1410
 21
445
  0
LINE
  8
_0-2_
  6
CONTINUOUS
 62
    7
 10
504.99998274102711
 20
439.2253246720054
 11
504.99998274102711
 21
289.22533537657733
  0
LINE
  8
_0-2_
  6
CONTINUOUS
 62
    7
 10
255
 20
439.2253246720054
 11
504.99998274102711
 21
439.2253246720054
  0
LINE
  8
_0-2_
  6
CONTINUOUS
 62
    7
 10
255
 20
439.2253246720054
 11
255
 21
289.22533537657733
  0
LINE
  8
_0-2_
  6
CONTINUOUS
 62
    7
 10
255
 20
289.22533537657733
 11
504.99998274102711
 21
289.22533537657733
  0
LINE
  8
_0-5_
  6
CONTINUOUS
 62
    7
 10
303.99999248517304
 20
444.99999300000002
 11
303.99999248517304
 21
441.7253340647477
  0
LINE
  8
_0-5_
  6
CONTINUOUS
 62
    7
 10
307.99999414524154
 20
440.22534179742172
 11
306.49999073764934
 21
441.7253340647477
  0
LINE
  8
_0-5_
  6
CONTINUOUS
 62
    7
 10
285.49999873268916
 20
441.7253340647477
 11
306.49999073764934
 21
441.7253340647477
  0
LINE
  8
_0-5_
  6
CONTINUOUS
 62
    7
 10
307.99999414524154
 20
440.22534179742172
 11
307.99999414524154
 21
439.2253246720054
  0
LINE
  8
_0-5_
  6
CONTINUOUS
 62
    7
 10
285.49999873268916
 20
441.7253340647477
 11
283.99999532509702
 21
440.22534179742172
  0
LINE
  8
_0-5_
  6
CONTINUOUS
 62
    7
 10
283.99999532509702
 20
440.22534179742172
 11
283.99999532509702
 21
439.2253246720054
  0
LINE
  8
_0-5_
  6
CONTINUOUS
 62
    7
 10
307.99999414524154
 20
439.2253246720054
 11
283.99999532509702
 21
439.2253246720054
  0
LINE
  8
_0-5_
  6
CONTINUOUS
 62
    7
 10
307.99999414524154
 20
440.22534179742172
 11
283.99999532509702
 21
440.22534179742172
  0
LINE
  8
_0-5_
  6
CONTINUOUS
 62
    7
 10
287.99999698516547
 20
444.99999300000002
 11
287.99999698516547
 21
441.7253340647477
  0
LINE
  8
_0-5_
  6
CONTINUOUS
 62
    7
 10
289.441959606453
 20
441.7253340647477
 11
303.52161831920273
 21
441.7253340647477
  0
LINE
  8
_0-5_
  6
CONTINUOUS
 62
    7
 10
287.99999698516547
 20
444.99999300000002
 11
303.99999248517304
 21
444.99999300000002
  0
TEXT
  8
_0-f_
 62
    7
 10
811.875
 20
97.5
 40
17.5
 41
1
 50
0
  1
2019.01.25.
  0
TEXT
  8
_0-f_
 62
    7
 10
1325
 20
142.5
 40
17.5
 41
1
 50
0
  1
FREE
  0
TEXT
  8
_0-f_
 62
    7
 10
980
 20
97.5
 40
22.5
 41
0.8888888888888888
 50
0
  1
ステンレス製 散水栓ボックス（壁用・露出型）
  0
TEXT
  8
_0-f_
 62
    7
 10
980
 20
52.5
 40
22.5
 41
1
 50
0
  1
ＳＷＲ２
  0
TEXT
  8
_0-f_
 62
    7
 10
1375
 20
52.5
 40
17.5
 41
1
 50
0
  1
SB
  0
ENDSEC
  0
EOF
