  0
SECTION
  2
HEADER
  9
$ACADVER
  1
AC1009
  9
$INSBASE
 10
0
 20
0
 30
0
  9
$EXTMIN
 10
0
 20
0
  9
$EXTMAX
 10
1188
 20
840
  9
$LIMMIN
 10
0
 20
0
  9
$LIMMAX
 10
1188
 20
840
  9
$LTSCALE
 40
4
  0
ENDSEC
  0
SECTION
  2
TABLES
  0
TABLE
  2
LTYPE
 70
     9
  0
LTYPE
  2
CONTINUOUS
 70
    64
  3
実線
 72
    65
 73
     0
 40
0.0
  0
LTYPE
  2
DASHED1
 70
    64
  3
--  --  --  --  --  --  --  --  
 72
    65
 73
     2
 40
2.5
 49
1.25
 49
-1.25
  0
LTYPE
  2
DASHED2
 70
    64
  3
----    ----    ----    ----    
 72
    65
 73
     2
 40
5.0
 49
2.5
 49
-2.5
  0
LTYPE
  2
DASHED3
 70
    64
  3
------  ------  ------  ------  
 72
    65
 73
     2
 40
5.0
 49
3.75
 49
-1.25
  0
LTYPE
  2
CENTER1
 70
    64
  3
----- - ----- - ----- - ----- - 
 72
    65
 73
     4
 40
10.0
 49
6.25
 49
-1.25
 49
1.25
 49
-1.25
  0
LTYPE
  2
CENTER2
 70
    64
  3
----------  --  ----------  --  
 72
    65
 73
     4
 40
20.0
 49
12.5
 49
-2.5
 49
2.5
 49
-2.5
  0
LTYPE
  2
PHANTOM1
 70
    64
  3
--- - - --- - - --- - - --- - - 
 72
    65
 73
     6
 40
10.0
 49
3.25
 49
-1.25
 49
1.25
 49
-1.25
 49
1.25
 49
-1.25
  0
LTYPE
  2
PHANTOM2
 70
    64
  3
--------  -  -  --------  -  -  
 72
    65
 73
     6
 40
20.0
 49
10.0
 49
-2.5
 49
1.25
 49
-2.5
 49
1.25
 49
-2.5
  0
LTYPE
  2
DOT
 70
    64
  3
-   -   -   -   -   -   -   -   
 72
    65
 73
     2
 40
2.5
 49
0.625
 49
-1.875
  0
LTYPE
  2
DUMMY
 70
    64
  3
ダミー
 72
    65
 73
     0
 40
0.0
  0
LTYPE
  2
RAND1
 70
    64
  3
ランダム線1
 72
    65
 73
     4
 40
10.0
 49
1.0
 49
-2.0
 49
3.0
 49
-4.0
  0
LTYPE
  2
RAND2
 70
    64
  3
ランダム線2
 72
    65
 73
     4
 40
14.0
 49
2.0
 49
-3.0
 49
4.0
 49
-5.0
  0
LTYPE
  2
RAND3
 70
    64
  3
ランダム線3
 72
    65
 73
     4
 40
18.0
 49
3.0
 49
-4.0
 49
5.0
 49
-6.0
  0
LTYPE
  2
RAND4
 70
    64
  3
ランダム線4
 72
    65
 73
     4
 40
22.0
 49
4.0
 49
-5.0
 49
6.0
 49
-7.0
  0
LTYPE
  2
RAND5
 70
    64
  3
ランダム線5
 72
    65
 73
     4
 40
26.0
 49
5.0
 49
-6.0
 49
7.0
 49
-8.0
  0
LTYPE
  2
LONG1
 70
    64
  3
----------  --  ----------  --  
 72
    65
 73
     4
 40
40.0
 49
32.5
 49
-2.5
 49
2.5
 49
-2.5
  0
LTYPE
  2
LONG2
 70
    64
  3
--------  -  -  --------  -  -  
 72
    65
 73
     6
 40
40.0
 49
30.0
 49
-2.5
 49
1.25
 49
-2.5
 49
1.25
 49
-2.5
  0
LTYPE
  2
LONG3
 70
    64
  3
+++++++++++++++..+++++++++++++++
 72
    65
 73
     2
 40
40.0
 49
37.5
 49
-2.5
  0
LTYPE
  2
LONG4
 70
    64
  3
+++++++++++++++..+++++++++++++++
 72
    65
 73
     2
 40
80.0
 49
75.0
 49
-5.0
  0
LTYPE
  2
LONG5
 70
    64
  3
----------  --  ----------  --  
 72
    65
 73
     4
 40
60.0
 49
37.5
 49
-7.5
 49
7.5
 49
-7.5
  0
LTYPE
  2
dashed
 70
   64
  3
-------   -------------   ------
 72
   65
 73
    2
 40
7.5
 49
6
 49
-1.5
  0
LTYPE
  2
dashed_spaced
 70
   64
  3
----        --------        ----
 72
   65
 73
    2
 40
12
 49
6
 49
-6
  0
LTYPE
  2
long_dashed_dotted
 70
   64
  3
------------- --- --------------
 72
   65
 73
    4
 40
15.25
 49
12
 49
-1.5
 49
0.25
 49
-1.5
  0
LTYPE
  2
long_dashed_double-dotted
 70
   64
  3
----------- --- --- ------------
 72
   65
 73
    6
 40
17
 49
12
 49
-1.5
 49
0.25
 49
-1.5
 49
0.25
 49
-1.5
  0
LTYPE
  2
long_dashed_triplicate-dotted
 70
   64
  3
--------- --- --- --- ----------
 72
   65
 73
    8
 40
18.75
 49
12
 49
-1.5
 49
0.25
 49
-1.5
 49
0.25
 49
-1.5
 49
0.25
 49
-1.5
  0
LTYPE
  2
dotted
 70
   64
  3
   -       -       -       -    
 72
   65
 73
    2
 40
1.75
 49
0.25
 49
-1.5
  0
LTYPE
  2
chain
 70
   64
  3
-------------- -- --------------
 72
   65
 73
    4
 40
18.5
 49
12
 49
-1.5
 49
3.5
 49
-1.5
  0
LTYPE
  2
chain_double_dash
 70
   64
  3
------------ -- -- -------------
 72
   65
 73
    6
 40
23.5
 49
12
 49
-1.5
 49
3.5
 49
-1.5
 49
3.5
 49
-1.5
  0
LTYPE
  2
dashed_dotted
 70
   64
  3
-----------     -     ----------
 72
   65
 73
    4
 40
9.25
 49
6
 49
-1.5
 49
0.25
 49
-1.5
  0
LTYPE
  2
double-dashed_dotted
 70
   64
  3
------   -----------   -   -----
 72
   65
 73
    6
 40
16.75
 49
6
 49
-1.5
 49
6
 49
-1.5
 49
0.25
 49
-1.5
  0
LTYPE
  2
dashed_double-dotted
 70
   64
  3
---------    -    -    ---------
 72
   65
 73
    6
 40
11
 49
6
 49
-1.5
 49
0.25
 49
-1.5
 49
0.25
 49
-1.5
  0
LTYPE
  2
double-dashed_double-dotted
 70
   64
  3
-----   ---------   -   -   ----
 72
   65
 73
    8
 40
18.5
 49
6
 49
-1.5
 49
6
 49
-1.5
 49
0.25
 49
-1.5
 49
0.25
 49
-1.5
  0
LTYPE
  2
dashed_triplicate-dotted
 70
   64
  3
-------    -    -    -    ------
 72
   65
 73
    8
 40
12.75
 49
6
 49
-1.5
 49
0.25
 49
-1.5
 49
0.25
 49
-1.5
 49
0.25
 49
-1.5
  0
LTYPE
  2
double-dashed_triplicate-dotted
 70
   64
  3
-----  ---------  -  -  -  -----
 72
   65
 73
   10
 40
20.25
 49
6
 49
-1.5
 49
6
 49
-1.5
 49
0.25
 49
-1.5
 49
0.25
 49
-1.5
 49
0.25
 49
-1.5
  0
LTYPE
  2
undefined
 70
   64
  3
--------------------------------
 72
   65
 73
    0
 40
0
  0
LTYPE
  2
_
 70
   64
  3
                                
 72
   65
 73
    0
 40
0
  0
LTYPE
  2
__18
 70
   64
  3
                                
 72
   65
 73
    0
 40
0
  0
LTYPE
  2
__19
 70
   64
  3
                                
 72
   65
 73
    0
 40
0
  0
LTYPE
  2
__20
 70
   64
  3
                                
 72
   65
 73
    0
 40
0
  0
LTYPE
  2
__21
 70
   64
  3
                                
 72
   65
 73
    0
 40
0
  0
LTYPE
  2
__22
 70
   64
  3
                                
 72
   65
 73
    0
 40
0
  0
LTYPE
  2
__23
 70
   64
  3
                                
 72
   65
 73
    0
 40
0
  0
LTYPE
  2
__24
 70
   64
  3
                                
 72
   65
 73
    0
 40
0
  0
LTYPE
  2
__25
 70
   64
  3
                                
 72
   65
 73
    0
 40
0
  0
LTYPE
  2
__26
 70
   64
  3
                                
 72
   65
 73
    0
 40
0
  0
LTYPE
  2
__27
 70
   64
  3
                                
 72
   65
 73
    0
 40
0
  0
LTYPE
  2
__28
 70
   64
  3
                                
 72
   65
 73
    0
 40
0
  0
LTYPE
  2
__29
 70
   64
  3
                                
 72
   65
 73
    0
 40
0
  0
LTYPE
  2
__30
 70
   64
  3
                                
 72
   65
 73
    0
 40
0
  0
LTYPE
  2
__31
 70
   64
  3
                                
 72
   65
 73
    0
 40
0
  0
LTYPE
  2
__32
 70
   64
  3
                                
 72
   65
 73
    0
 40
0
  0
ENDTAB
  0
TABLE
  2
STYLE
  5
3
100
AcDbSymbolTable
 70
     1
  0
STYLE
  5
10
100
AcDbSymbolTableRecord
100
AcDbTextStyleTableRecord
  2
STANDARD
 70
     0
 40
0.0
 41
1.0
 50
0.0
 71
     0
 42
0.2
  3
txt
  4
bigfont.shx
  0
STYLE
  5
26
100
AcDbSymbolTableRecord
100
AcDbTextStyleTableRecord
  2
TATEGAKI
 70
    68
 40
0.0
 41
1.0
 50
0.0
 71
     0
 42
1.0
  3
txt
  4
bigfont.shx
  0
ENDTAB
  0
TABLE
  2
LAYER
 70
    8
  0
LAYER
  2
_0-0_
 70
   64
 62
    7
  6
CONTINUOUS
  0
LAYER
  2
_0-1_
 70
   64
 62
    7
  6
CONTINUOUS
  0
LAYER
  2
_0-2_
 70
   64
 62
    7
  6
CONTINUOUS
  0
LAYER
  2
_0-4_
 70
   64
 62
    7
  6
CONTINUOUS
  0
LAYER
  2
_0-5_
 70
   64
 62
    7
  6
CONTINUOUS
  0
LAYER
  2
_0-6_
 70
   64
 62
    7
  6
CONTINUOUS
  0
LAYER
  2
_0-f_
 70
   64
 62
    7
  6
CONTINUOUS
  0
LAYER
  2
ADD_LINE
 70
   64
 62
    7
  6
CONTINUOUS
  0
ENDTAB
  0
ENDSEC
  0
SECTION
  2
BLOCKS
  0
BLOCK
  2
-000-BLK249
 70
   64
 10
0
 20
0
 30
0
  0
LINE
  8
_0-2_
  6
CONTINUOUS
 62
    2
 10
0
 20
-4.6800000000000637
 11
0
 21
-3.1800000000000637
  0
LINE
  8
_0-2_
  6
CONTINUOUS
 62
    2
 10
1.8000000000000114
 20
-4.6800000000000637
 11
1.8000000000000114
 21
-0.7800000000000864
  0
LINE
  8
_0-2_
  6
CONTINUOUS
 62
    2
 10
0.3000000000000113
 20
-4.6800000000000637
 11
1.8000000000000114
 21
-4.6800000000000637
  0
LINE
  8
_0-2_
  6
CONTINUOUS
 62
    2
 10
0.3000000000000113
 20
1.3199999999999363
 11
0.3000000000000113
 21
-4.6800000000000637
  0
LINE
  8
_0-2_
  6
CONTINUOUS
 62
    2
 10
2.0999999999999943
 20
1.3199999999999363
 11
0.3000000000000113
 21
1.3199999999999363
  0
LINE
  8
_0-2_
  6
CONTINUOUS
 62
    2
 10
2.0999999999999943
 20
1.3199999999999363
 11
4.8000000000000114
 21
-2.5800000000000409
  0
LINE
  8
_0-2_
  6
CONTINUOUS
 62
    2
 10
4.8000000000000114
 20
1.3199999999999363
 11
4.8000000000000114
 21
-2.5800000000000409
  0
LINE
  8
_0-2_
  6
CONTINUOUS
 62
    2
 10
6.3000000000000114
 20
1.3199999999999363
 11
4.8000000000000114
 21
1.3199999999999363
  0
LINE
  8
_0-2_
  6
CONTINUOUS
 62
    2
 10
6.3000000000000114
 20
-4.6800000000000637
 11
4.5
 21
-4.6800000000000637
  0
LINE
  8
_0-2_
  6
CONTINUOUS
 62
    2
 10
-5.4000000000000057
 20
-1.0800000000000409
 11
-5.4000000000000057
 21
-0.4800000000000181
  0
LINE
  8
_0-2_
  6
CONTINUOUS
 62
    2
 10
-6.9000000000000057
 20
-1.0800000000000409
 11
-5.4000000000000057
 21
-1.0800000000000409
  0
LINE
  8
_0-2_
  6
CONTINUOUS
 62
    2
 10
-6.9000000000000057
 20
-0.7800000000000864
 11
-6.9000000000000057
 21
-1.0800000000000409
  0
LINE
  8
_0-2_
  6
CONTINUOUS
 62
    2
 10
-9.3000000000000114
 20
-0.1800000000000636
 11
-7.5
 21
-0.1800000000000636
  0
LINE
  8
_0-2_
  6
CONTINUOUS
 62
    2
 10
-9.9000000000000057
 20
-2.5800000000000409
 11
-9.9000000000000057
 21
-0.7800000000000864
  0
LINE
  8
_0-2_
  6
CONTINUOUS
 62
    2
 10
-7.5
 20
-3.1800000000000637
 11
-9.3000000000000114
 21
-3.1800000000000637
  0
LINE
  8
_0-2_
  6
CONTINUOUS
 62
    2
 10
-8.4000000000000057
 20
-2.5800000000000409
 11
-6.9000000000000057
 21
-2.5800000000000409
  0
LINE
  8
_0-2_
  6
CONTINUOUS
 62
    2
 10
-8.4000000000000057
 20
-1.3799999999999955
 11
-8.4000000000000057
 21
-2.5800000000000409
  0
LINE
  8
_0-2_
  6
CONTINUOUS
 62
    2
 10
-5.4000000000000057
 20
-1.3799999999999955
 11
-8.4000000000000057
 21
-1.3799999999999955
  0
LINE
  8
_0-2_
  6
CONTINUOUS
 62
    2
 10
-5.4000000000000057
 20
-2.8799999999999955
 11
-5.4000000000000057
 21
-1.3799999999999955
  0
LINE
  8
_0-2_
  6
CONTINUOUS
 62
    2
 10
-5.0999999999999943
 20
-4.6800000000000637
 11
0
 21
-4.6800000000000637
  0
ARC
  8
_0-2_
  6
CONTINUOUS
 62
    2
 10
-7.1999999999999886
 20
-2.8799999999999955
 40
1.8
 50
270
 51
0
  0
ARC
  8
_0-2_
  6
CONTINUOUS
 62
    2
 10
-9.5999999999999943
 20
-2.8799999999999955
 40
1.8
 50
180
 51
270
  0
ARC
  8
_0-2_
  6
CONTINUOUS
 62
    2
 10
-7.5
 20
-0.7800000000000864
 40
0.5999999999999999
 50
0
 51
90
  0
ARC
  8
_0-2_
  6
CONTINUOUS
 62
    2
 10
-7.1999999999999886
 20
-0.4800000000000181
 40
1.8
 50
0
 51
90
  0
LINE
  8
_0-2_
  6
CONTINUOUS
 62
    2
 10
-5.0999999999999943
 20
1.3199999999999363
 11
-5.0999999999999943
 21
-4.6800000000000637
  0
LINE
  8
_0-2_
  6
CONTINUOUS
 62
    2
 10
0
 20
1.3199999999999363
 11
-5.0999999999999943
 21
1.3199999999999363
  0
LINE
  8
_0-2_
  6
CONTINUOUS
 62
    2
 10
6.3000000000000114
 20
1.3199999999999363
 11
6.3000000000000114
 21
-4.6800000000000637
  0
LINE
  8
_0-2_
  6
CONTINUOUS
 62
    2
 10
-15.900000000000006
 20
-1.3799999999999955
 11
-13.800000000000011
 21
1.3199999999999363
  0
LINE
  8
_0-2_
  6
CONTINUOUS
 62
    2
 10
-13.199999999999989
 20
-4.6800000000000637
 11
-11.699999999999989
 21
-4.6800000000000637
  0
LINE
  8
_0-2_
  6
CONTINUOUS
 62
    2
 10
-13.800000000000011
 20
1.3199999999999363
 11
-15.599999999999994
 21
1.3199999999999363
  0
LINE
  8
_0-2_
  6
CONTINUOUS
 62
    2
 10
-15.599999999999994
 20
1.3199999999999363
 11
-17.699999999999989
 21
-1.3799999999999955
  0
ARC
  8
_0-2_
  6
CONTINUOUS
 62
    2
 10
-9.3000000000000114
 20
-2.5800000000000409
 40
0.5999999999999999
 50
180
 51
270
  0
LINE
  8
_0-2_
  6
CONTINUOUS
 62
    2
 10
-11.699999999999989
 20
1.3199999999999363
 11
-13.199999999999989
 21
1.3199999999999363
  0
LINE
  8
_0-2_
  6
CONTINUOUS
 62
    2
 10
-15.300000000000011
 20
-4.6800000000000637
 11
-13.5
 21
-4.6800000000000637
  0
ARC
  8
_0-2_
  6
CONTINUOUS
 62
    2
 10
-9.5999999999999943
 20
-0.4800000000000181
 40
1.8
 50
90
 51
180
  0
LINE
  8
_0-2_
  6
CONTINUOUS
 62
    2
 10
-13.5
 20
-4.6800000000000637
 11
-15.900000000000006
 21
-1.3799999999999955
  0
LINE
  8
_0-2_
  6
CONTINUOUS
 62
    2
 10
-11.699999999999989
 20
-4.6800000000000637
 11
-11.699999999999989
 21
1.3199999999999363
  0
LINE
  8
_0-2_
  6
CONTINUOUS
 62
    2
 10
-17.699999999999989
 20
1.3199999999999363
 11
-19.199999999999989
 21
1.3199999999999363
  0
LINE
  8
_0-2_
  6
CONTINUOUS
 62
    2
 10
-17.699999999999989
 20
-1.3799999999999955
 11
-15.300000000000011
 21
-4.6800000000000637
  0
LINE
  8
_0-2_
  6
CONTINUOUS
 62
    2
 10
-21.26400000000001
 20
-3.7800000000000864
 11
-20.939999999999998
 21
-4.6800000000000637
  0
LINE
  8
_0-2_
  6
CONTINUOUS
 62
    2
 10
-3.5999999999999943
 20
-3.1800000000000637
 11
-3.5999999999999943
 21
-2.2800000000000864
  0
LINE
  8
_0-2_
  6
CONTINUOUS
 62
    2
 10
0
 20
-3.1800000000000637
 11
-3.5999999999999943
 21
-3.1800000000000637
  0
LINE
  8
_0-2_
  6
CONTINUOUS
 62
    2
 10
-22.5
 20
-0.3466640000000325
 11
-21.782399999999996
 21
-2.3400000000000318
  0
LINE
  8
_0-2_
  6
CONTINUOUS
 62
    2
 10
-19.439999999999998
 20
-4.6800000000000637
 11
-20.939999999999998
 21
-4.6800000000000637
  0
LINE
  8
_0-2_
  6
CONTINUOUS
 62
    2
 10
-22.5
 20
-0.3466640000000325
 11
-23.217600000000004
 21
-2.3400000000000318
  0
ARC
  8
_0-2_
  6
CONTINUOUS
 62
    2
 10
-7.5
 20
-2.5800000000000409
 40
0.5999999999999999
 50
270
 51
0
  0
LINE
  8
_0-2_
  6
CONTINUOUS
 62
    2
 10
-17.699999999999989
 20
-4.6800000000000637
 11
-17.699999999999989
 21
1.3199999999999363
  0
LINE
  8
_0-2_
  6
CONTINUOUS
 62
    2
 10
-25.560000000000002
 20
-4.6800000000000637
 11
-24.060000000000002
 21
-4.6800000000000637
  0
LINE
  8
_0-2_
  6
CONTINUOUS
 62
    2
 10
-23.400000000000006
 20
1.3199999999999363
 11
-21.599999999999994
 21
1.3199999999999363
  0
LINE
  8
_0-2_
  6
CONTINUOUS
 62
    2
 10
-21.599999999999994
 20
1.3199999999999363
 11
-19.439999999999998
 21
-4.6800000000000637
  0
LINE
  8
_0-2_
  6
CONTINUOUS
 62
    2
 10
-23.400000000000006
 20
1.3199999999999363
 11
-25.560000000000002
 21
-4.6800000000000637
  0
LINE
  8
_0-2_
  6
CONTINUOUS
 62
    2
 10
-13.199999999999989
 20
1.3199999999999363
 11
-13.199999999999989
 21
-4.6800000000000637
  0
LINE
  8
_0-2_
  6
CONTINUOUS
 62
    2
 10
1.8000000000000114
 20
-0.7800000000000864
 11
4.5
 21
-4.6800000000000637
  0
LINE
  8
_0-2_
  6
CONTINUOUS
 62
    2
 10
-23.217600000000004
 20
-2.3400000000000318
 11
-21.782399999999996
 21
-2.3400000000000318
  0
LINE
  8
_0-2_
  6
CONTINUOUS
 62
    2
 10
-23.73599999999999
 20
-3.7800000000000864
 11
-24.060000000000002
 21
-4.6800000000000637
  0
LINE
  8
_0-2_
  6
CONTINUOUS
 62
    2
 10
-21.26400000000001
 20
-3.7800000000000864
 11
-23.73599999999999
 21
-3.7800000000000864
  0
LINE
  8
_0-2_
  6
CONTINUOUS
 62
    2
 10
-7.1999999999999886
 20
1.3199999999999363
 11
-9.5999999999999943
 21
1.3199999999999363
  0
LINE
  8
_0-2_
  6
CONTINUOUS
 62
    2
 10
-24
 20
0
 11
-24
 21
1.3199999999999363
  0
LINE
  8
_0-2_
  6
CONTINUOUS
 62
    2
 10
-26.099999999999994
 20
0
 11
-24
 21
0
  0
LINE
  8
_0-2_
  6
CONTINUOUS
 62
    2
 10
-26.099999999999994
 20
-4.6800000000000637
 11
-26.099999999999994
 21
0
  0
LINE
  8
_0-2_
  6
CONTINUOUS
 62
    2
 10
-27.599999999999994
 20
-4.6800000000000637
 11
-26.099999999999994
 21
-4.6800000000000637
  0
LINE
  8
_0-2_
  6
CONTINUOUS
 62
    2
 10
-27.599999999999994
 20
0
 11
-27.599999999999994
 21
-4.6800000000000637
  0
LINE
  8
_0-2_
  6
CONTINUOUS
 62
    2
 10
-29.699999999999989
 20
0
 11
-27.599999999999994
 21
0
  0
LINE
  8
_0-2_
  6
CONTINUOUS
 62
    2
 10
-29.699999999999989
 20
1.3199999999999363
 11
-29.699999999999989
 21
0
  0
LINE
  8
_0-2_
  6
CONTINUOUS
 62
    2
 10
-24
 20
1.3199999999999363
 11
-29.699999999999989
 21
1.3199999999999363
  0
LINE
  8
_0-2_
  6
CONTINUOUS
 62
    2
 10
-19.199999999999989
 20
-4.6800000000000637
 11
-17.699999999999989
 21
-4.6800000000000637
  0
LINE
  8
_0-2_
  6
CONTINUOUS
 62
    2
 10
-19.199999999999989
 20
1.3199999999999363
 11
-19.199999999999989
 21
-4.6800000000000637
  0
LINE
  8
_0-2_
  6
CONTINUOUS
 62
    2
 10
-11.400000000000006
 20
-0.4800000000000181
 11
-11.400000000000006
 21
-2.8799999999999955
  0
ARC
  8
_0-2_
  6
CONTINUOUS
 62
    2
 10
-9.3000000000000114
 20
-0.7800000000000864
 40
0.5999999999999999
 50
90
 51
180
  0
LINE
  8
_0-2_
  6
CONTINUOUS
 62
    2
 10
-9.5999999999999943
 20
-4.6800000000000637
 11
-7.1999999999999886
 21
-4.6800000000000637
  0
LINE
  8
_0-2_
  6
CONTINUOUS
 62
    2
 10
-3.5999999999999943
 20
-2.2800000000000864
 11
-0.3000000000000113
 21
-2.2800000000000864
  0
LINE
  8
_0-2_
  6
CONTINUOUS
 62
    2
 10
-0.3000000000000113
 20
-2.2800000000000864
 11
-0.3000000000000113
 21
-0.9300000000000636
  0
LINE
  8
_0-2_
  6
CONTINUOUS
 62
    2
 10
-0.3000000000000113
 20
-0.9300000000000636
 11
-3.5999999999999943
 21
-0.9300000000000636
  0
LINE
  8
_0-2_
  6
CONTINUOUS
 62
    2
 10
-3.5999999999999943
 20
-0.9300000000000636
 11
-3.5999999999999943
 21
0
  0
LINE
  8
_0-2_
  6
CONTINUOUS
 62
    2
 10
-3.5999999999999943
 20
0
 11
0
 21
0
  0
LINE
  8
_0-2_
  6
CONTINUOUS
 62
    2
 10
0
 20
0
 11
0
 21
1.3199999999999363
  0
ENDBLK
  0
BLOCK
  2
-001-BLK250
 70
   64
 10
0
 20
0
 30
0
  0
INSERT
  2
-000-BLK249
  8
_0-2_
 10
221.925444
 20
730.21464000000003
 41
1
 42
1
 50
0
  0
ENDBLK
  0
ENDSEC
  0
SECTION
  2
ENTITIES
  0
TEXT
  8
_0-f_
 62
    7
 10
832
 20
460
 40
16
 41
1
 50
0
  1
　　　指定色にて、焼付け塗装できます。
  0
TEXT
  8
_0-1_
 62
    7
 10
303.99999694064661
 20
598.51999650653499
 40
25
 41
1
 50
0
  1
散水栓
  7
TATEGAKI
  0
LINE
  8
_0-5_
  6
CONTINUOUS
 62
    7
 10
252.9999924851731
 20
316.77466132799464
 11
252.9999924851731
 21
313.50000239274232
  0
LINE
  8
_0-f_
  6
CONTINUOUS
 62
    3
 10
40
 20
800
 11
40
 21
40
  0
LINE
  8
_0-f_
  6
CONTINUOUS
 62
    3
 10
40
 20
40
 11
1148
 21
40
  0
LINE
  8
_0-f_
  6
CONTINUOUS
 62
    3
 10
1148
 20
40
 11
1148
 21
800
  0
LINE
  8
_0-f_
  6
CONTINUOUS
 62
    3
 10
1148
 20
800
 11
40
 21
800
  0
LINE
  8
_0-f_
  6
CONTINUOUS
 62
    7
 10
388
 20
76
 11
1148
 21
76
  0
LINE
  8
_0-f_
  6
CONTINUOUS
 62
    7
 10
388
 20
148
 11
1148
 21
148
  0
LINE
  8
_0-f_
  6
CONTINUOUS
 62
    7
 10
388
 20
40
 11
388
 21
184
  0
LINE
  8
_0-f_
  6
CONTINUOUS
 62
    7
 10
388
 20
184
 11
1148
 21
184
  0
LINE
  8
_0-f_
  6
CONTINUOUS
 62
    7
 10
1080
 20
40
 11
1080
 21
76
  0
LINE
  8
_0-f_
  6
CONTINUOUS
 62
    7
 10
768
 20
76
 11
768
 21
184
  0
LINE
  8
_0-f_
  6
CONTINUOUS
 62
    7
 10
1048
 20
112
 11
1048
 21
184
  0
LINE
  8
_0-f_
  6
CONTINUOUS
 62
    7
 10
548
 20
76
 11
548
 21
148
  0
LINE
  8
_0-f_
  6
CONTINUOUS
 62
    7
 10
468
 20
76
 11
468
 21
148
  0
LINE
  8
_0-f_
  6
CONTINUOUS
 62
    7
 10
628
 20
112
 11
1148
 21
112
  0
LINE
  8
_0-f_
  6
CONTINUOUS
 62
    7
 10
628
 20
40
 11
628
 21
148
  0
TEXT
  8
_0-f_
 62
    7
 10
392
 20
168
 40
12
 41
0.6666666666666666
 50
0
  1
注
  0
TEXT
  8
_0-f_
 62
    7
 10
772
 20
168
 40
12
 41
0.6666666666666666
 50
0
  1
材質　MATERIAL
  0
POINT
  8
_0-f_
 62
    9
 10
416
 20
150
  0
POINT
  8
_0-f_
 62
    9
 10
804
 20
150
  0
POINT
  8
_0-f_
 62
    9
 10
772
 20
168
  0
TEXT
  8
_0-f_
 62
    7
 10
1052
 20
168
 40
12
 41
0.6666666666666666
 50
0
  1
個数　QUANTITY
  0
TEXT
  8
_0-f_
 62
    7
 10
392
 20
132
 40
12
 41
0.6666666666666666
 50
0
  1
APPROVED
  0
TEXT
  8
_0-f_
 62
    7
 10
472
 20
132
 40
12
 41
0.6666666666666666
 50
0
  1
CHECKED
  0
TEXT
  8
_0-f_
 62
    7
 10
552
 20
132
 40
12
 41
0.6666666666666666
 50
0
  1
DESIGNER
  0
TEXT
  8
_0-f_
 62
    7
 10
632
 20
132
 40
12
 41
0.6666666666666666
 50
0
  1
図面サイズ　SIZU
  0
TEXT
  8
_0-f_
 62
    7
 10
632
 20
96
 40
12
 41
0.6666666666666666
 50
0
  1
日付　DATE
  0
TEXT
  8
_0-f_
 62
    7
 10
772
 20
132
 40
12
 41
0.6666666666666666
 50
0
  1
表面処理　SURFACE TREATMENT
  0
TEXT
  8
_0-f_
 62
    7
 10
1052
 20
132
 40
12
 41
0.6666666666666666
 50
0
  1
尺度　SCALE
  0
TEXT
  8
_0-f_
 62
    7
 10
632
 20
58
 40
14
 41
0.7142857142857143
 50
0
  1
図　　番
  0
TEXT
  8
_0-f_
 62
    7
 10
682
 20
64
 40
8
 41
1
 50
0
  1
DRAWING No
  0
TEXT
  8
_0-f_
 62
    7
 10
804
 20
150
 40
14
 41
1
 50
0
  1
別記
  0
TEXT
  8
_0-f_
 62
    7
 10
784
 20
114
 40
14
 41
1
 50
0
  1
別記
  0
TEXT
  8
_0-f_
 62
    7
 10
1072
 20
150
 40
14
 41
1
 50
0
  1
別記
  0
TEXT
  8
_0-f_
 62
    7
 10
1084
 20
60
 40
12
 41
0.6666666666666666
 50
0
  1
ユニット
  0
TEXT
  8
_0-f_
 62
    7
 10
568
 20
78
 40
20
 41
1
 50
0
  1
玉置
  0
TEXT
  8
_0-f_
 62
    7
 10
464
 20
46
 40
24
 41
0.8333333333333333
 50
0
  1
株式会社アウス
  0
POINT
  8
_0-f_
 62
    9
 10
428
 20
78
  0
POINT
  8
_0-f_
 62
    9
 10
508
 20
78
  0
POINT
  8
_0-f_
 62
    9
 10
588
 20
78
  0
POINT
  8
_0-f_
 62
    9
 10
392
 20
132
  0
POINT
  8
_0-f_
 62
    9
 10
472
 20
132
  0
POINT
  8
_0-f_
 62
    9
 10
552
 20
132
  0
POINT
  8
_0-f_
 62
    9
 10
632
 20
132
  0
POINT
  8
_0-f_
 62
    9
 10
772
 20
132
  0
POINT
  8
_0-f_
 62
    9
 10
784
 20
114
  0
POINT
  8
_0-f_
 62
    9
 10
632
 20
58
  0
POINT
  8
_0-f_
 62
    9
 10
464
 20
46
  0
POINT
  8
_0-f_
 62
    9
 10
784
 20
42
  0
POINT
  8
_0-f_
 62
    9
 10
784
 20
78
  0
POINT
  8
_0-f_
 62
    9
 10
1060
 20
114
  0
POINT
  8
_0-f_
 62
    9
 10
1052
 20
132
  0
POINT
  8
_0-f_
 62
    9
 10
1052
 20
168
  0
POINT
  8
_0-f_
 62
    9
 10
1072
 20
150
  0
POINT
  8
_0-f_
 62
    9
 10
1100
 20
42
  0
POINT
  8
_0-f_
 62
    9
 10
1084
 20
60
  0
POINT
  8
_0-f_
 62
    9
 10
632
 20
96
  0
POINT
  8
_0-f_
 62
    9
 10
698
 20
114
  0
POINT
  8
_0-f_
 62
    9
 10
698
 20
78
  0
TEXT
  8
_0-f_
 62
    7
 10
684
 20
114
 40
14
 41
1
 50
0
  1
Ａ４
  0
TEXT
  8
_0-f_
 62
    7
 10
772
 20
98
 40
12
 41
0.6666666666666666
 50
0
  1
図面名　TITLE
  0
POINT
  8
_0-f_
 62
    9
 10
772
 20
98
  0
TEXT
  8
_0-f_
 62
    7
 10
416
 20
150
 40
14
 41
1
 50
0
  1
　
  0
LINE
  8
_0-1_
  6
CONTINUOUS
 62
    7
 10
219.99999550000769
 20
659.9999933597262
 11
387.99999838128554
 21
659.9999933597262
  0
LINE
  8
_0-1_
  6
CONTINUOUS
 62
    7
 10
219.99999550000769
 20
659.9999933597262
 11
219.99999550000769
 21
446.99999965334371
  0
LINE
  8
_0-1_
  6
CONTINUOUS
 62
    7
 10
387.99999838128554
 20
446.99999965334371
 11
219.99999550000769
 21
446.99999965334371
  0
LINE
  8
_0-1_
  6
CONTINUOUS
 62
    7
 10
387.99999838128554
 20
659.9999933597262
 11
387.99999838128554
 21
446.99999965334371
  0
LINE
  8
_0-2_
  6
CONTINUOUS
 62
    7
 10
204
 20
676
 11
218.99998951485753
 21
660.9999882046103
  0
LINE
  8
_0-2_
  6
CONTINUOUS
 62
    7
 10
204
 20
676
 11
204
 21
430.99999301307002
  0
LINE
  8
_0-2_
  6
CONTINUOUS
 62
    7
 10
204
 20
676
 11
403.99998274102711
 21
676
  0
LINE
  8
_0-2_
  6
CONTINUOUS
 62
    7
 10
218.99998951485753
 20
660.9999882046103
 11
388.99999322616958
 21
660.9999882046103
  0
LINE
  8
_0-2_
  6
CONTINUOUS
 62
    7
 10
218.99998951485753
 20
660.9999882046103
 11
218.99998951485753
 21
446.00000480845972
  0
LINE
  8
_0-2_
  6
CONTINUOUS
 62
    7
 10
388.99999322616958
 20
446.00000480845972
 11
218.99998951485753
 21
446.00000480845972
  0
LINE
  8
_0-2_
  6
CONTINUOUS
 62
    7
 10
204
 20
430.99999301307002
 11
218.99998951485753
 21
446.00000480845972
  0
LINE
  8
_0-2_
  6
CONTINUOUS
 62
    7
 10
403.99998274102711
 20
430.99999301307002
 11
204
 21
430.99999301307002
  0
LINE
  8
_0-2_
  6
CONTINUOUS
 62
    7
 10
403.99998274102711
 20
676
 11
403.99998274102711
 21
430.99999301307002
  0
LINE
  8
_0-2_
  6
CONTINUOUS
 62
    7
 10
388.99999322616958
 20
446.00000480845972
 11
403.99998274102711
 21
430.99999301307002
  0
LINE
  8
_0-2_
  6
CONTINUOUS
 62
    7
 10
388.99999322616958
 20
660.9999882046103
 11
388.99999322616958
 21
446.00000480845972
  0
LINE
  8
_0-2_
  6
CONTINUOUS
 62
    7
 10
403.99998274102711
 20
676
 11
388.99999322616958
 21
660.9999882046103
  0
LINE
  8
_0-2_
  6
CONTINUOUS
 62
    7
 10
523.9999828
 20
676
 11
618.99998323569412
 21
676
  0
LINE
  8
_0-2_
  6
CONTINUOUS
 62
    7
 10
523.9999828
 20
676
 11
523.9999828
 21
430.99999301307002
  0
LINE
  8
_0-2_
  6
CONTINUOUS
 62
    7
 10
618.99998323569412
 20
676
 11
618.99998323569412
 21
430.99999301307002
  0
LINE
  8
_0-2_
  6
CONTINUOUS
 62
    7
 10
523.9999828
 20
430.99999301307002
 11
618.99998323569412
 21
430.99999301307002
  0
LINE
  8
_0-2_
  6
CONTINUOUS
 62
    7
 10
204
 20
310.99999300000002
 11
403.99998274102711
 21
310.99999300000002
  0
LINE
  8
_0-2_
  6
CONTINUOUS
 62
    7
 10
204
 20
310.99999300000002
 11
204
 21
216.00000370457198
  0
LINE
  8
_0-2_
  6
CONTINUOUS
 62
    7
 10
204
 20
216.00000370457198
 11
403.99998274102711
 21
216.00000370457198
  0
LINE
  8
_0-2_
  6
CONTINUOUS
 62
    7
 10
403.99998274102711
 20
310.99999300000002
 11
403.99998274102711
 21
216.00000370457198
  0
LINE
  8
_0-4_
  6
DASHED2
 62
    4
 10
374.5000011337541
 20
635.99998339931562
 11
374.5000011337541
 21
659.9999933597262
  0
LINE
  8
_0-4_
  6
DASHED2
 62
    4
 10
374.5000011337541
 20
635.99998339931562
 11
381.49998732847473
 21
635.99998339931562
  0
LINE
  8
_0-4_
  6
DASHED2
 62
    4
 10
381.49998732847473
 20
635.99998339931562
 11
381.49998732847473
 21
659.9999933597262
  0
LINE
  8
_0-4_
  6
DASHED2
 62
    4
 10
381.49998732847473
 20
470.99998733322218
 11
381.49998732847473
 21
446.99999965334371
  0
LINE
  8
_0-4_
  6
DASHED2
 62
    4
 10
374.5000011337541
 20
470.99998733322218
 11
374.5000011337541
 21
446.99999965334371
  0
LINE
  8
_0-4_
  6
DASHED2
 62
    4
 10
381.49998732847473
 20
470.99998733322218
 11
374.5000011337541
 21
470.99998733322218
  0
LINE
  8
_0-5_
  6
CONTINUOUS
 62
    7
 10
244.9857073439149
 20
534.89992974380652
 11
246.66460114430538
 21
536.5788124039309
  0
LINE
  8
_0-5_
  6
CONTINUOUS
 62
    7
 10
246.3999195623839
 20
533.48569524480536
 11
248.07880222250827
 21
535.16457790492973
  0
LINE
  8
_0-5_
  6
CONTINUOUS
 62
    7
 10
256.9999941452416
 20
588.49998318146856
 11
256.9999941452416
 21
518.49998755106913
  0
LINE
  8
_0-5_
  6
CONTINUOUS
 62
    7
 10
232.99999532509707
 20
588.49998318146856
 11
232.99999532509707
 21
518.49998755106913
  0
LINE
  8
_0-5_
  6
CONTINUOUS
 62
    7
 10
232.99999532509707
 20
518.49998755106913
 11
256.9999941452416
 21
518.49998755106913
  0
LINE
  8
_0-5_
  6
CONTINUOUS
 62
    7
 10
243.33539946629935
 20
530.42118628898697
 11
245.01428212642378
 21
532.10006894911123
  0
LINE
  8
_0-5_
  6
CONTINUOUS
 62
    7
 10
241.92117610756424
 20
531.8353762269237
 11
243.60006990795478
 21
533.51425888704807
  0
LINE
  8
_0-5_
  6
CONTINUOUS
 62
    7
 10
255.4999907376494
 20
587.00001319467469
 11
255.4999907376494
 21
520.00000209892755
  0
LINE
  8
_0-5_
  6
CONTINUOUS
 62
    7
 10
234.49999873268922
 20
587.00001319467469
 11
234.49999873268922
 21
520.00000209892755
  0
LINE
  8
_0-5_
  6
CONTINUOUS
 62
    7
 10
234.49999873268922
 20
520.00000209892755
 11
255.4999907376494
 21
520.00000209892755
  0
LINE
  8
_0-5_
  6
CONTINUOUS
 62
    7
 10
255.4999907376494
 20
520.00000209892755
 11
256.9999941452416
 21
518.49998755106913
  0
LINE
  8
_0-5_
  6
CONTINUOUS
 62
    7
 10
234.49999873268922
 20
520.00000209892755
 11
232.99999532509707
 21
518.49998755106913
  0
LINE
  8
_0-5_
  6
CONTINUOUS
 62
    7
 10
234.49999873268922
 20
587.00001319467469
 11
232.99999532509707
 21
588.49998318146856
  0
LINE
  8
_0-5_
  6
CONTINUOUS
 62
    7
 10
236.99999698516552
 20
577.49999532667948
 11
252.9999924851731
 21
577.49999532667948
  0
LINE
  8
_0-5_
  6
CONTINUOUS
 62
    7
 10
252.9999924851731
 20
577.49999532667948
 11
252.9999924851731
 21
528.49998056097422
  0
LINE
  8
_0-5_
  6
CONTINUOUS
 62
    7
 10
236.99999698516552
 20
528.49998056097422
 11
236.99999698516552
 21
577.49999532667948
  0
LINE
  8
_0-5_
  6
CONTINUOUS
 62
    7
 10
238.99999781519972
 20
565.5000126270063
 11
238.99999781519972
 21
571.0000065544009
  0
LINE
  8
_0-5_
  6
CONTINUOUS
 62
    7
 10
250.9999916551389
 20
573.99999108905308
 11
250.9999916551389
 21
573.49997138607887
  0
LINE
  8
_0-5_
  6
CONTINUOUS
 62
    7
 10
236.99999698516552
 20
563.49997837617389
 11
252.9999924851731
 21
563.49997837617389
  0
LINE
  8
_0-5_
  6
CONTINUOUS
 62
    7
 10
236.99999698516552
 20
575.24988438276341
 11
252.9999924851731
 21
575.24988438276341
  0
LINE
  8
_0-5_
  6
CONTINUOUS
 62
    7
 10
236.99999698516552
 20
577.12180557361455
 11
252.9999924851731
 21
577.12180557361455
  0
LINE
  8
_0-5_
  6
CONTINUOUS
 62
    7
 10
238.99999781519972
 20
573.99999108905308
 11
250.9999916551389
 21
573.99999108905308
  0
LINE
  8
_0-5_
  6
CONTINUOUS
 62
    7
 10
238.99999781519972
 20
573.49997138607887
 11
250.9999916551389
 21
573.49997138607887
  0
LINE
  8
_0-5_
  6
CONTINUOUS
 62
    7
 10
238.99999781519972
 20
572.49997654119488
 11
250.9999916551389
 21
572.49997654119488
  0
LINE
  8
_0-5_
  6
CONTINUOUS
 62
    7
 10
238.99999781519972
 20
572.000001399285
 11
250.9999916551389
 21
572.000001399285
  0
LINE
  8
_0-5_
  6
CONTINUOUS
 62
    7
 10
238.99999781519972
 20
571.0000065544009
 11
250.9999916551389
 21
571.0000065544009
  0
LINE
  8
_0-5_
  6
CONTINUOUS
 62
    7
 10
238.99999781519972
 20
573.49997138607887
 11
238.99999781519972
 21
573.99999108905308
  0
LINE
  8
_0-5_
  6
CONTINUOUS
 62
    7
 10
250.9999916551389
 20
572.49997654119488
 11
250.9999916551389
 21
572.000001399285
  0
LINE
  8
_0-5_
  6
CONTINUOUS
 62
    7
 10
238.99999781519972
 20
572.000001399285
 11
238.99999781519972
 21
572.49997654119488
  0
LINE
  8
_0-5_
  6
CONTINUOUS
 62
    7
 10
250.9999916551389
 20
571.0000065544009
 11
250.9999916551389
 21
565.5000126270063
  0
LINE
  8
_0-5_
  6
CONTINUOUS
 62
    7
 10
238.99999781519972
 20
565.5000126270063
 11
250.9999916551389
 21
565.5000126270063
  0
LINE
  8
_0-5_
  6
CONTINUOUS
 62
    7
 10
236.99999698516552
 20
528.49998056097422
 11
252.9999924851731
 21
528.49998056097422
  0
LINE
  8
_0-5_
  6
CONTINUOUS
 62
    7
 10
256.9999941452416
 20
588.49998318146856
 11
255.4999907376494
 21
587.00001319467469
  0
LINE
  8
_0-5_
  6
CONTINUOUS
 62
    7
 10
234.49999873268922
 20
587.00001319467469
 11
255.4999907376494
 21
587.00001319467469
  0
LINE
  8
_0-5_
  6
CONTINUOUS
 62
    7
 10
232.99999532509707
 20
588.49998318146856
 11
256.9999941452416
 21
588.49998318146856
  0
ARC
  8
_0-5_
  6
CONTINUOUS
 62
    7
 10
244.99998916503631
 20
533.49999934645894
 40
3.3999998096449211
 50
207.89532470703122
 51
242.10462951660153
  0
ARC
  8
_0-5_
  6
CONTINUOUS
 62
    7
 10
244.99998916503631
 20
533.49999934645894
 40
3.3999998096449211
 50
27.895355224609375
 51
62.1046142578125
  0
CIRCLE
  8
_0-5_
  6
CONTINUOUS
 62
    7
 10
244.99998916503631
 20
533.49999934645894
 40
3.500000060026621
  0
CIRCLE
  8
_0-5_
  6
CONTINUOUS
 62
    7
 10
244.99998916503631
 20
533.49999934645894
 40
1.3999999369773195
  0
LINE
  8
_0-5_
  6
CONTINUOUS
 62
    7
 10
256.9999941452416
 20
312.00001012541634
 11
255.4999907376494
 21
313.50000239274232
  0
LINE
  8
_0-5_
  6
CONTINUOUS
 62
    7
 10
234.49999873268922
 20
313.50000239274232
 11
255.4999907376494
 21
313.50000239274232
  0
LINE
  8
_0-5_
  6
CONTINUOUS
 62
    7
 10
256.9999941452416
 20
312.00001012541634
 11
256.9999941452416
 21
310.99999300000002
  0
LINE
  8
_0-5_
  6
CONTINUOUS
 62
    7
 10
234.49999873268922
 20
313.50000239274232
 11
232.99999532509707
 21
312.00001012541634
  0
LINE
  8
_0-5_
  6
CONTINUOUS
 62
    7
 10
232.99999532509707
 20
312.00001012541634
 11
232.99999532509707
 21
310.99999300000002
  0
LINE
  8
_0-5_
  6
CONTINUOUS
 62
    7
 10
256.9999941452416
 20
310.99999300000002
 11
232.99999532509707
 21
310.99999300000002
  0
LINE
  8
_0-5_
  6
CONTINUOUS
 62
    7
 10
256.9999941452416
 20
312.00001012541634
 11
232.99999532509707
 21
312.00001012541634
  0
LINE
  8
_0-5_
  6
CONTINUOUS
 62
    7
 10
236.99999698516552
 20
316.77466132799464
 11
236.99999698516552
 21
313.50000239274232
  0
LINE
  8
_0-5_
  6
CONTINUOUS
 62
    7
 10
238.44195960645305
 20
313.50000239274232
 11
252.52161831920279
 21
313.50000239274232
  0
LINE
  8
_0-5_
  6
CONTINUOUS
 62
    7
 10
521.4999734072577
 20
563.49997837617389
 11
518.31305520769354
 21
574.1987779970799
  0
LINE
  8
_0-5_
  6
CONTINUOUS
 62
    7
 10
522.99994339405157
 20
588.49998318146856
 11
523.9999828
 21
588.49998318146856
  0
LINE
  8
_0-5_
  6
CONTINUOUS
 62
    7
 10
521.4999734072577
 20
587.00001319467469
 11
522.99994339405157
 21
588.49998318146856
  0
LINE
  8
_0-5_
  6
CONTINUOUS
 62
    7
 10
522.99994339405157
 20
518.49998755106913
 11
523.9999828
 21
518.49998755106913
  0
LINE
  8
_0-5_
  6
CONTINUOUS
 62
    7
 10
521.4999734072577
 20
520.00000209892755
 11
522.99994339405157
 21
518.49998755106913
  0
LINE
  8
_0-5_
  6
CONTINUOUS
 62
    7
 10
523.9999828
 20
588.49998318146856
 11
523.9999828
 21
518.49998755106913
  0
LINE
  8
_0-5_
  6
CONTINUOUS
 62
    7
 10
522.99994339405157
 20
588.49998318146856
 11
522.99994339405157
 21
518.49998755106913
  0
LINE
  8
_0-5_
  6
CONTINUOUS
 62
    7
 10
521.4999734072577
 20
587.00001319467469
 11
521.4999734072577
 21
520.00000209892755
  0
ARC
  8
_0-5_
  6
CONTINUOUS
 62
    7
 10
522.34311330566015
 20
572.11519175060744
 40
5.0771000271956863
 50
99.559310913085923
 51
131.74166870117185
  0
ARC
  8
_0-5_
  6
CONTINUOUS
 62
    7
 10
519.75063970440965
 20
574.62696526433592
 40
1.4999999262590333
 50
121.67852783203126
 51
196.58747863769531
  0
LINE
  8
_0-5_
  6
PHANTOM2
 62
    4
 10
495.23690751373977
 20
551.08981107923864
 11
515.27777831008302
 21
560.91066861049148
  0
LINE
  8
_0-5_
  6
PHANTOM2
 62
    4
 10
500.44077088805398
 20
545.28778225773851
 11
510.0080314021402
 21
549.97614095921995
  0
LINE
  8
_0-5_
  6
PHANTOM2
 62
    4
 10
511.15913281620573
 20
556.10832270642504
 11
516.37790186654206
 21
558.66572675003908
  0
LINE
  8
_0-5_
  6
PHANTOM2
 62
    4
 10
498.58934778679986
 20
545.72332210061086
 11
495.05979956351513
 21
550.33699645825607
  0
LINE
  8
_0-5_
  6
PHANTOM2
 62
    4
 10
510.8277767417635
 20
551.56826322707172
 11
510.33938747658243
 21
554.51615587750894
  0
ARC
  8
_0-5_
  6
PHANTOM2
 62
    4
 10
509.34794835605186
 20
551.32308825106566
 40
1.4999999262590333
 50
296.10676574707031
 51
9.4075622558593821
  0
ARC
  8
_0-5_
  6
PHANTOM2
 62
    4
 10
499.78071012249779
 20
546.63472954958434
 40
1.4999999262590333
 50
217.41667175292969
 51
296.10676574707031
  0
ARC
  8
_0-5_
  6
PHANTOM2
 62
    4
 10
511.81921586229402
 20
554.76133085351489
 40
1.4999999262590333
 50
116.10679626464844
 51
189.40751647949222
  0
ARC
  8
_0-5_
  6
PHANTOM2
 62
    4
 10
495.45692776892514
 20
550.64081379493541
 40
0.4999999899252325
 50
116.10679626464844
 51
217.41667175292972
  0
LINE
  8
_0-5_
  6
CONTINUOUS
 62
    7
 10
236.99999698516552
 20
316.77466132799464
 11
252.9999924851731
 21
316.77466132799464
  0
LINE
  8
_0-0_
  6
CONTINUOUS
 62
    7
 10
377.99999423111444
 20
446.99999965334371
 11
386.48527560535297
 21
438.51471827910513
  0
LINE
  8
_0-0_
  6
CONTINUOUS
 62
    7
 10
377.99999423111444
 20
446.99999965334371
 11
381.10582277234465
 21
435.40888973787492
  0
LINE
  8
_0-0_
  6
CONTINUOUS
 62
    7
 10
232.99999532509707
 20
570.99998984400179
 11
221.40888540962828
 21
574.10581838523206
  0
LINE
  8
_0-0_
  6
CONTINUOUS
 62
    7
 10
232.99999532509707
 20
570.99998984400179
 11
224.51471395085849
 21
579.48527121824031
  0
CIRCLE
  8
_0-0_
  6
CONTINUOUS
 62
    7
 10
410.3316131470433
 20
390.99999300000002
 40
12
  0
CIRCLE
  8
_0-0_
  6
CONTINUOUS
 62
    7
 10
164
 20
610.83715571902951
 40
12
  0
TEXT
  8
_0-0_
 62
    7
 10
400.3316131470433
 20
380.99999300000002
 40
20
 41
1
 50
0
  1
４
  0
TEXT
  8
_0-0_
 62
    7
 10
154
 20
600.83715571902951
 40
20
 41
1
 50
0
  1
５
  0
LINE
  8
_0-0_
  6
CONTINUOUS
 62
    7
 10
232.99999532509707
 20
570.99998984400179
 11
174.39230484541326
 21
604.83715571902951
  0
LINE
  8
_0-0_
  6
CONTINUOUS
 62
    7
 10
377.99999423111444
 20
446.99999965334371
 11
404.3316131470433
 21
401.39229784541322
  0
TEXT
  8
_0-f_
 62
    7
 10
796
 20
360
 40
16
 41
1
 50
0
  1
番号
  0
TEXT
  8
_0-f_
 62
    7
 10
804
 20
336
 40
16
 41
1
 50
0
  1
１
  0
TEXT
  8
_0-f_
 62
    7
 10
804
 20
312
 40
16
 41
1
 50
0
  1
２
  0
POINT
  8
_0-f_
 62
    9
 10
812
 20
360
  0
POINT
  8
_0-f_
 62
    9
 10
812
 20
336
  0
POINT
  8
_0-f_
 62
    9
 10
812
 20
312
  0
LINE
  8
_0-f_
  6
CONTINUOUS
 62
    7
 10
792
 20
380
 11
1128
 21
380
  0
LINE
  8
_0-f_
  6
CONTINUOUS
 62
    7
 10
792
 20
356
 11
1128
 21
356
  0
LINE
  8
_0-f_
  6
CONTINUOUS
 62
    7
 10
792
 20
332
 11
1128
 21
332
  0
LINE
  8
_0-f_
  6
CONTINUOUS
 62
    7
 10
792
 20
308
 11
1128
 21
308
  0
POINT
  8
_0-f_
 62
    9
 10
892
 20
360
  0
POINT
  8
_0-f_
 62
    9
 10
892
 20
336
  0
POINT
  8
_0-f_
 62
    9
 10
892
 20
312
  0
POINT
  8
_0-f_
 62
    9
 10
1068
 20
312
  0
POINT
  8
_0-f_
 62
    9
 10
1068
 20
336
  0
POINT
  8
_0-f_
 62
    9
 10
1068
 20
360
  0
POINT
  8
_0-f_
 62
    9
 10
980
 20
360
  0
POINT
  8
_0-f_
 62
    9
 10
980
 20
336
  0
POINT
  8
_0-f_
 62
    9
 10
980
 20
312
  0
POINT
  8
_0-f_
 62
    9
 10
812
 20
288
  0
LINE
  8
_0-f_
  6
CONTINUOUS
 62
    7
 10
792
 20
284
 11
1128
 21
284
  0
POINT
  8
_0-f_
 62
    9
 10
892
 20
288
  0
POINT
  8
_0-f_
 62
    9
 10
1068
 20
288
  0
POINT
  8
_0-f_
 62
    9
 10
980
 20
288
  0
TEXT
  8
_0-f_
 62
    7
 10
804
 20
288
 40
16
 41
1
 50
0
  1
３
  0
TEXT
  8
_0-f_
 62
    7
 10
1052
 20
360
 40
16
 41
1
 50
0
  1
備考
  0
TEXT
  8
_0-f_
 62
    7
 10
964
 20
360
 40
16
 41
1
 50
0
  1
材質
  0
TEXT
  8
_0-f_
 62
    7
 10
852
 20
360
 40
16
 41
1
 50
0
  1
部　材　名
  0
POINT
  8
_0-f_
 62
    9
 10
812
 20
264
  0
LINE
  8
_0-f_
  6
CONTINUOUS
 62
    7
 10
792
 20
260
 11
1128
 21
260
  0
POINT
  8
_0-f_
 62
    9
 10
892
 20
264
  0
POINT
  8
_0-f_
 62
    9
 10
1068
 20
264
  0
POINT
  8
_0-f_
 62
    9
 10
980
 20
264
  0
POINT
  8
_0-f_
 62
    9
 10
812
 20
240
  0
LINE
  8
_0-f_
  6
CONTINUOUS
 62
    7
 10
792
 20
236
 11
1128
 21
236
  0
POINT
  8
_0-f_
 62
    9
 10
892
 20
240
  0
POINT
  8
_0-f_
 62
    9
 10
1068
 20
240
  0
POINT
  8
_0-f_
 62
    9
 10
980
 20
240
  0
POINT
  8
_0-f_
 62
    9
 10
812
 20
216
  0
LINE
  8
_0-f_
  6
CONTINUOUS
 62
    7
 10
792
 20
212
 11
1128
 21
212
  0
POINT
  8
_0-f_
 62
    9
 10
892
 20
216
  0
POINT
  8
_0-f_
 62
    9
 10
1068
 20
216
  0
POINT
  8
_0-f_
 62
    9
 10
980
 20
216
  0
LINE
  8
_0-f_
  6
CONTINUOUS
 62
    7
 10
792
 20
212
 11
792
 21
380
  0
LINE
  8
_0-f_
  6
CONTINUOUS
 62
    7
 10
832
 20
212
 11
832
 21
380
  0
LINE
  8
_0-f_
  6
CONTINUOUS
 62
    7
 10
952
 20
212
 11
952
 21
380
  0
LINE
  8
_0-f_
  6
CONTINUOUS
 62
    7
 10
1008
 20
212
 11
1008
 21
380
  0
LINE
  8
_0-f_
  6
CONTINUOUS
 62
    7
 10
1128
 20
212
 11
1128
 21
380
  0
LINE
  8
_0-0_
  6
CONTINUOUS
 62
    2
 10
219.99999550000769
 20
704
 11
231.59110541547648
 21
707.10582854123027
  0
LINE
  8
_0-0_
  6
CONTINUOUS
 62
    2
 10
219.99999550000769
 20
704
 11
231.59110541547648
 21
700.89417145876973
  0
LINE
  8
_0-0_
  6
CONTINUOUS
 62
    2
 10
387.99999838128554
 20
704
 11
376.40888846581674
 21
707.10582854123027
  0
LINE
  8
_0-0_
  6
CONTINUOUS
 62
    2
 10
387.99999838128554
 20
704
 11
376.40888846581674
 21
700.89417145876973
  0
LINE
  8
_0-0_
  6
CONTINUOUS
 62
    2
 10
219.99999550000769
 20
708
 11
219.99999550000769
 21
663.9999933597262
  0
LINE
  8
_0-0_
  6
CONTINUOUS
 62
    2
 10
387.99999838128554
 20
708
 11
387.99999838128554
 21
663.9999933597262
  0
LINE
  8
_0-0_
  6
CONTINUOUS
 62
    2
 10
219.99999550000769
 20
704
 11
387.99999838128554
 21
704
  0
TEXT
  8
_0-0_
 62
    7
 10
287.99999694064661
 20
706
 40
20
 41
1
 50
0
  1
168
  0
LINE
  8
_0-0_
  6
CONTINUOUS
 62
    2
 10
204
 20
732
 11
215.59110991546879
 21
735.10582854123027
  0
LINE
  8
_0-0_
  6
CONTINUOUS
 62
    2
 10
204
 20
732
 11
215.59110991546879
 21
728.89417145876973
  0
LINE
  8
_0-0_
  6
CONTINUOUS
 62
    2
 10
403.99998274102711
 20
732
 11
392.40887282555832
 21
735.10582854123027
  0
LINE
  8
_0-0_
  6
CONTINUOUS
 62
    2
 10
403.99998274102711
 20
732
 11
392.40887282555832
 21
728.89417145876973
  0
LINE
  8
_0-0_
  6
CONTINUOUS
 62
    2
 10
204
 20
736
 11
204
 21
680
  0
LINE
  8
_0-0_
  6
CONTINUOUS
 62
    2
 10
403.99998274102711
 20
736
 11
403.99998274102711
 21
680
  0
LINE
  8
_0-0_
  6
CONTINUOUS
 62
    2
 10
204
 20
732
 11
403.99998274102711
 21
732
  0
TEXT
  8
_0-0_
 62
    7
 10
287.99999137051356
 20
734
 40
20
 41
1
 50
0
  1
200
  0
LINE
  8
_0-0_
  6
CONTINUOUS
 62
    2
 10
523.9999828
 20
732
 11
535.59109271546879
 21
735.10582854123027
  0
LINE
  8
_0-0_
  6
CONTINUOUS
 62
    2
 10
523.9999828
 20
732
 11
535.59109271546879
 21
728.89417145876973
  0
LINE
  8
_0-0_
  6
CONTINUOUS
 62
    2
 10
618.99998323569412
 20
732
 11
607.40887332022533
 21
735.10582854123027
  0
LINE
  8
_0-0_
  6
CONTINUOUS
 62
    2
 10
618.99998323569412
 20
732
 11
607.40887332022533
 21
728.89417145876973
  0
LINE
  8
_0-0_
  6
CONTINUOUS
 62
    2
 10
523.9999828
 20
736
 11
523.9999828
 21
680
  0
LINE
  8
_0-0_
  6
CONTINUOUS
 62
    2
 10
618.99998323569412
 20
736
 11
618.99998323569412
 21
680
  0
LINE
  8
_0-0_
  6
CONTINUOUS
 62
    2
 10
523.9999828
 20
732
 11
618.99998323569412
 21
732
  0
TEXT
  8
_0-0_
 62
    7
 10
560.99998301784706
 20
734
 40
20
 41
1
 50
0
  1
95
  0
LINE
  8
_0-0_
  6
CONTINUOUS
 62
    2
 10
136
 20
446.99999965334371
 11
132.89417145876973
 21
458.5911095688125
  0
LINE
  8
_0-0_
  6
CONTINUOUS
 62
    2
 10
136
 20
446.99999965334371
 11
139.10582854123027
 21
458.5911095688125
  0
LINE
  8
_0-0_
  6
CONTINUOUS
 62
    2
 10
136
 20
659.9999933597262
 11
132.89417145876973
 21
648.40888344425741
  0
LINE
  8
_0-0_
  6
CONTINUOUS
 62
    2
 10
136
 20
659.9999933597262
 11
139.10582854123027
 21
648.40888344425741
  0
LINE
  8
_0-0_
  6
CONTINUOUS
 62
    2
 10
132
 20
446.99999965334371
 11
215.99999550000769
 21
446.99999965334371
  0
LINE
  8
_0-0_
  6
CONTINUOUS
 62
    2
 10
132
 20
659.9999933597262
 11
215.99999550000769
 21
659.9999933597262
  0
LINE
  8
_0-0_
  6
CONTINUOUS
 62
    2
 10
136
 20
446.99999965334371
 11
136
 21
659.9999933597262
  0
TEXT
  8
_0-0_
 62
    7
 10
134
 20
537.49999650653501
 40
20
 41
1
 50
90
  1
213
  0
LINE
  8
_0-0_
  6
CONTINUOUS
 62
    2
 10
108
 20
430.99999301307002
 11
104.89417145876973
 21
442.59110292853882
  0
LINE
  8
_0-0_
  6
CONTINUOUS
 62
    2
 10
108
 20
430.99999301307002
 11
111.10582854123027
 21
442.59110292853882
  0
LINE
  8
_0-0_
  6
CONTINUOUS
 62
    2
 10
108
 20
676
 11
104.89417145876973
 21
664.40889008453121
  0
LINE
  8
_0-0_
  6
CONTINUOUS
 62
    2
 10
108
 20
676
 11
111.10582854123027
 21
664.40889008453121
  0
LINE
  8
_0-0_
  6
CONTINUOUS
 62
    2
 10
104
 20
430.99999301307002
 11
200
 21
430.99999301307002
  0
LINE
  8
_0-0_
  6
CONTINUOUS
 62
    2
 10
104
 20
676
 11
200
 21
676
  0
LINE
  8
_0-0_
  6
CONTINUOUS
 62
    2
 10
108
 20
430.99999301307002
 11
108
 21
676
  0
TEXT
  8
_0-0_
 62
    7
 10
106
 20
537.49999650653501
 40
20
 41
1
 50
90
  1
245
  0
TEXT
  8
_0-f_
 62
    7
 10
884
 20
336
 40
16
 41
1
 50
0
  1
扉
  0
TEXT
  8
_0-f_
 62
    7
 10
876
 20
312
 40
16
 41
1
 50
0
  1
本体
  0
TEXT
  8
_0-f_
 62
    7
 10
876
 20
288
 40
16
 41
1
 50
0
  1
背板
  0
TEXT
  8
_0-f_
 62
    7
 10
868
 20
264
 40
16
 41
1
 50
0
  1
回転軸
  0
TEXT
  8
_0-f_
 62
    7
 10
836
 20
240
 40
16
 41
0.875
 50
0
  1
小型平面ハンドル
  0
TEXT
  8
_0-f_
 62
    7
 10
884
 20
216
 40
16
 41
1
 50
0
  1
鍵
  0
TEXT
  8
_0-f_
 62
    7
 10
956
 20
336
 40
16
 41
1
 50
0
  1
SUS304
  0
TEXT
  8
_0-f_
 62
    7
 10
956
 20
312
 40
16
 41
1
 50
0
  1
SUS304
  0
TEXT
  8
_0-f_
 62
    7
 10
956
 20
288
 40
16
 41
1
 50
0
  1
SUS304
  0
TEXT
  8
_0-f_
 62
    7
 10
956
 20
264
 40
16
 41
1
 50
0
  1
SUS304
  0
TEXT
  8
_0-f_
 62
    7
 10
968
 20
240
 40
16
 41
1
 50
0
  1
ZDC
  0
TEXT
  8
_0-f_
 62
    7
 10
1060
 20
336
 40
16
 41
1
 50
0
  1
t3
  0
TEXT
  8
_0-f_
 62
    7
 10
1052
 20
312
 40
16
 41
1
 50
0
  1
t1.2
  0
TEXT
  8
_0-f_
 62
    7
 10
1052
 20
288
 40
16
 41
1
 50
0
  1
t1.2
  0
TEXT
  8
_0-f_
 62
    7
 10
1056
 20
264
 40
16
 41
1
 50
0
  1
φ4
  0
TEXT
  8
_0-f_
 62
    7
 10
1100
 20
42
 40
14
 41
1
 50
0
  1
SB
  0
TEXT
  8
_0-f_
 62
    7
 10
804
 20
264
 40
16
 41
1
 50
0
  1
４
  0
TEXT
  8
_0-f_
 62
    7
 10
804
 20
240
 40
16
 41
1
 50
0
  1
５
  0
TEXT
  8
_0-f_
 62
    7
 10
804
 20
216
 40
16
 41
1
 50
0
  1
６
  0
TEXT
  8
_0-f_
 62
    7
 10
832
 20
520
 40
16
 41
1
 50
0
  1
※１）表面ヘアーライン仕上げ
  0
TEXT
  8
_0-f_
 62
    7
 10
832
 20
500
 40
16
 41
1
 50
0
  1
※２）文字の色は、ブルー
  0
TEXT
  8
_0-f_
 62
    7
 10
832
 20
480
 40
16
 41
1
 50
0
  1
※３）単品より、（社）日本塗料工業会の
  0
LINE
  8
_0-6_
  6
CONTINUOUS
 62
    7
 10
981.89027199999998
 20
651.06790799999999
 11
990.1097279999999
 21
651.06790799999999
  0
LINE
  8
_0-6_
  6
CONTINUOUS
 62
    7
 10
977.52832000000001
 20
664.06790799999999
 11
978.89718599999992
 21
652.43254200000001
  0
LINE
  8
_0-6_
  6
CONTINUOUS
 62
    7
 10
994.47168099999999
 20
664.06790799999999
 11
977.52832000000001
 21
664.06790799999999
  0
ARC
  8
_0-6_
  6
CONTINUOUS
 62
    7
 10
994
 20
646.5
 40
6
 50
98.599745999999996
 51
130.41947099999999
  0
ARC
  8
_0-6_
  6
CONTINUOUS
 62
    7
 10
978
 20
646.5
 40
6
 50
49.580528999999999
 51
81.400254000000018
  0
ARC
  8
_0-6_
  6
CONTINUOUS
 62
    7
 10
978
 20
646.5
 40
5
 50
0
 51
85.340751000000012
  0
ARC
  8
_0-6_
  6
CONTINUOUS
 62
    7
 10
994
 20
646.5
 40
5
 50
94.659249000000017
 51
180
  0
LINE
  8
_0-6_
  6
CONTINUOUS
 62
    7
 10
995.80388100000005
 20
666.83298300000001
 11
994.04981299999997
 21
651.923404
  0
LINE
  8
_0-6_
  6
CONTINUOUS
 62
    7
 10
986
 20
671.5
 11
994.39227499999993
 21
668.98231799999996
  0
LINE
  8
_0-6_
  6
CONTINUOUS
 62
    7
 10
976.19612000000006
 20
666.83298300000001
 11
977.95018800000003
 21
651.923404
  0
LINE
  8
_0-6_
  6
CONTINUOUS
 62
    7
 10
986
 20
671.5
 11
977.60772499999996
 21
668.98231799999996
  0
ARC
  8
_0-6_
  6
CONTINUOUS
 62
    7
 10
993.81757900000002
 20
667.06666500000006
 40
2
 50
353.29016300000001
 51
73.300755999999993
  0
ARC
  8
_0-6_
  6
CONTINUOUS
 62
    7
 10
978.18242099999998
 20
667.06666500000006
 40
2
 50
106.69924399999999
 51
186.70983699999999
  0
ARC
  8
_0-6_
  6
CONTINUOUS
 62
    7
 10
978.44676299999992
 20
651.98182499999996
 40
0.5
 50
186.70983700000002
 51
265.34075100000001
  0
ARC
  8
_0-6_
  6
CONTINUOUS
 62
    7
 10
993.55323699999997
 20
651.98182499999996
 40
0.5
 50
274.65924899999999
 51
353.29016300000001
  0
ARC
  8
_0-6_
  6
CONTINUOUS
 62
    7
 10
980
 20
666.56790799999999
 40
1
 50
106.69924399999999
 51
270
  0
ARC
  8
_0-6_
  6
CONTINUOUS
 62
    7
 10
992
 20
666.56790799999999
 40
1
 50
270
 51
73.300756000000007
  0
LINE
  8
_0-6_
  6
CONTINUOUS
 62
    7
 10
985.5
 20
642.5
 11
986.5
 21
642.5
  0
LINE
  8
_0-6_
  6
CONTINUOUS
 62
    7
 10
980
 20
665.56790799999999
 11
992
 21
665.56790799999999
  0
LINE
  8
_0-6_
  6
CONTINUOUS
 62
    7
 10
992.28734800000007
 20
667.52573400000006
 11
986
 21
669.41193899999996
  0
LINE
  8
_0-6_
  6
CONTINUOUS
 62
    7
 10
979.71265199999993
 20
667.52573400000006
 11
986
 21
669.41193899999996
  0
ARC
  8
_0-6_
  6
CONTINUOUS
 62
    7
 10
985.5
 20
641.5
 40
1
 50
90
 51
180
  0
LINE
  8
_0-6_
  6
CONTINUOUS
 62
    7
 10
989
 20
636.5
 11
989
 21
646.5
  0
ARC
  8
_0-6_
  6
CONTINUOUS
 62
    7
 10
986.5
 20
641.5
 40
1
 50
0
 51
90
  0
LINE
  8
_0-6_
  6
CONTINUOUS
 62
    7
 10
987.5
 20
636.5
 11
989
 21
636.5
  0
LINE
  8
_0-6_
  6
CONTINUOUS
 62
    7
 10
987.5
 20
641.5
 11
987.5
 21
636.5
  0
LINE
  8
_0-6_
  6
CONTINUOUS
 62
    7
 10
984.5
 20
636.5
 11
984.5
 21
641.5
  0
LINE
  8
_0-6_
  6
CONTINUOUS
 62
    7
 10
983
 20
636.5
 11
984.5
 21
636.5
  0
LINE
  8
_0-6_
  6
CONTINUOUS
 62
    7
 10
983
 20
646.5
 11
983
 21
636.5
  0
CIRCLE
  8
_0-0_
  6
CONTINUOUS
 62
    7
 10
956.18242099999998
 20
691.5
 40
12
  0
TEXT
  8
_0-0_
 62
    7
 10
946.18242099999998
 20
681.5
 40
20
 41
1
 50
0
  1
６
  0
INSERT
  2
-001-BLK250
  8
_0-6_
 10
933.39586531602311
 20
479.78276555116713
 41
0.25
 42
0.25
 50
0
  0
LINE
  8
_0-6_
  6
CONTINUOUS
 62
    7
 10
993.10281499999996
 20
652.43254200000001
 11
994.47168099999999
 21
664.06790799999999
  0
POINT
  8
_0-0_
 62
    2
 10
367.99999838128554
 20
598
  0
LINE
  8
_0-0_
  6
CONTINUOUS
 62
    7
 10
367.99999838128554
 20
598
 11
433.60767795458673
 21
635.87861146255216
  0
CIRCLE
  8
_0-0_
  6
CONTINUOUS
 62
    7
 10
443.9999828
 20
641.87861146255216
 40
12
  0
TEXT
  8
_0-0_
 62
    7
 10
433.9999828
 20
631.87861146255216
 40
20
 41
1
 50
0
  1
１
  0
LINE
  8
_0-0_
  6
CONTINUOUS
 62
    7
 10
618.99998323569412
 20
598
 11
630.59109315116291
 21
601.10582854123027
  0
LINE
  8
_0-0_
  6
CONTINUOUS
 62
    7
 10
618.99998323569412
 20
598
 11
648.60767839028085
 21
615.09401076758502
  0
LINE
  8
_0-0_
  6
CONTINUOUS
 62
    7
 10
618.99998323569412
 20
598
 11
627.48526460993264
 21
606.48528137423864
  0
CIRCLE
  8
_0-0_
  6
CONTINUOUS
 62
    7
 10
658.99998323569412
 20
621.09401076758502
 40
12
  0
TEXT
  8
_0-0_
 62
    7
 10
648.99998323569412
 20
611.09401076758502
 40
20
 41
1
 50
0
  1
３
  0
LINE
  8
_0-0_
  6
CONTINUOUS
 62
    7
 10
403.99998274102711
 20
520
 11
412.48526411526569
 21
528.48528137423853
  0
LINE
  8
_0-0_
  6
CONTINUOUS
 62
    7
 10
403.99998274102711
 20
520
 11
415.5910926564959
 21
523.10582854123027
  0
CIRCLE
  8
_0-0_
  6
CONTINUOUS
 62
    7
 10
443.9999828
 20
543.09401080163298
 40
12
  0
TEXT
  8
_0-0_
 62
    7
 10
433.9999828
 20
533.09401080163309
 40
20
 41
1
 50
0
  1
２
  0
LINE
  8
_0-0_
  6
CONTINUOUS
 62
    7
 10
403.99998274102711
 20
520
 11
433.60767795458673
 21
537.09401080163298
  0
TEXT
  8
_0-f_
 62
    7
 10
640.5
 20
78
 40
14
 41
1
 50
0
  1
2005.10.22.-5
  0
TEXT
  8
_0-f_
 62
    7
 10
1060
 20
114
 40
14
 41
1
 50
0
  1
FREE
  0
TEXT
  8
_0-f_
 62
    7
 10
784
 20
78
 40
18
 41
0.7777777777777777
 50
0
  1
ステンレス製 散水栓ボックス（壁用・露出型・鍵付）
  0
TEXT
  8
_0-f_
 62
    7
 10
784
 20
42
 40
18
 41
1
 50
0
  1
ＳＷＲ１Ｋ
  0
ENDSEC
  0
EOF
