  0
SECTION
  2
HEADER
  9
$ACADVER
  1
AC1009
  9
$INSBASE
 10
0
 20
0
 30
0
  9
$EXTMIN
 10
0
 20
0
  9
$EXTMAX
 10
1680
 20
1188
  9
$LIMMIN
 10
0
 20
0
  9
$LIMMAX
 10
1680
 20
1188
  9
$LTSCALE
 40
4
  0
ENDSEC
  0
SECTION
  2
TABLES
  0
TABLE
  2
LTYPE
 70
     9
  0
LTYPE
  2
CONTINUOUS
 70
    64
  3
実線
 72
    65
 73
     0
 40
0.0
  0
LTYPE
  2
DASHED1
 70
    64
  3
--  --  --  --  --  --  --  --  
 72
    65
 73
     2
 40
2.5
 49
1.25
 49
-1.25
  0
LTYPE
  2
DASHED2
 70
    64
  3
----    ----    ----    ----    
 72
    65
 73
     2
 40
5.0
 49
2.5
 49
-2.5
  0
LTYPE
  2
DASHED3
 70
    64
  3
------  ------  ------  ------  
 72
    65
 73
     2
 40
5.0
 49
3.75
 49
-1.25
  0
LTYPE
  2
CENTER1
 70
    64
  3
----- - ----- - ----- - ----- - 
 72
    65
 73
     4
 40
10.0
 49
6.25
 49
-1.25
 49
1.25
 49
-1.25
  0
LTYPE
  2
CENTER2
 70
    64
  3
----------  --  ----------  --  
 72
    65
 73
     4
 40
20.0
 49
12.5
 49
-2.5
 49
2.5
 49
-2.5
  0
LTYPE
  2
PHANTOM1
 70
    64
  3
--- - - --- - - --- - - --- - - 
 72
    65
 73
     6
 40
10.0
 49
3.25
 49
-1.25
 49
1.25
 49
-1.25
 49
1.25
 49
-1.25
  0
LTYPE
  2
PHANTOM2
 70
    64
  3
--------  -  -  --------  -  -  
 72
    65
 73
     6
 40
20.0
 49
10.0
 49
-2.5
 49
1.25
 49
-2.5
 49
1.25
 49
-2.5
  0
LTYPE
  2
DOT
 70
    64
  3
-   -   -   -   -   -   -   -   
 72
    65
 73
     2
 40
2.5
 49
0.625
 49
-1.875
  0
LTYPE
  2
DUMMY
 70
    64
  3
ダミー
 72
    65
 73
     0
 40
0.0
  0
LTYPE
  2
RAND1
 70
    64
  3
ランダム線1
 72
    65
 73
     4
 40
10.0
 49
1.0
 49
-2.0
 49
3.0
 49
-4.0
  0
LTYPE
  2
RAND2
 70
    64
  3
ランダム線2
 72
    65
 73
     4
 40
14.0
 49
2.0
 49
-3.0
 49
4.0
 49
-5.0
  0
LTYPE
  2
RAND3
 70
    64
  3
ランダム線3
 72
    65
 73
     4
 40
18.0
 49
3.0
 49
-4.0
 49
5.0
 49
-6.0
  0
LTYPE
  2
RAND4
 70
    64
  3
ランダム線4
 72
    65
 73
     4
 40
22.0
 49
4.0
 49
-5.0
 49
6.0
 49
-7.0
  0
LTYPE
  2
RAND5
 70
    64
  3
ランダム線5
 72
    65
 73
     4
 40
26.0
 49
5.0
 49
-6.0
 49
7.0
 49
-8.0
  0
LTYPE
  2
LONG1
 70
    64
  3
----------  --  ----------  --  
 72
    65
 73
     4
 40
40.0
 49
32.5
 49
-2.5
 49
2.5
 49
-2.5
  0
LTYPE
  2
LONG2
 70
    64
  3
--------  -  -  --------  -  -  
 72
    65
 73
     6
 40
40.0
 49
30.0
 49
-2.5
 49
1.25
 49
-2.5
 49
1.25
 49
-2.5
  0
LTYPE
  2
LONG3
 70
    64
  3
+++++++++++++++..+++++++++++++++
 72
    65
 73
     2
 40
40.0
 49
37.5
 49
-2.5
  0
LTYPE
  2
LONG4
 70
    64
  3
+++++++++++++++..+++++++++++++++
 72
    65
 73
     2
 40
80.0
 49
75.0
 49
-5.0
  0
LTYPE
  2
LONG5
 70
    64
  3
----------  --  ----------  --  
 72
    65
 73
     4
 40
60.0
 49
37.5
 49
-7.5
 49
7.5
 49
-7.5
  0
LTYPE
  2
dashed
 70
   64
  3
-------   -------------   ------
 72
   65
 73
    2
 40
7.5
 49
6
 49
-1.5
  0
LTYPE
  2
dashed_spaced
 70
   64
  3
----        --------        ----
 72
   65
 73
    2
 40
12
 49
6
 49
-6
  0
LTYPE
  2
long_dashed_dotted
 70
   64
  3
------------- --- --------------
 72
   65
 73
    4
 40
15.25
 49
12
 49
-1.5
 49
0.25
 49
-1.5
  0
LTYPE
  2
long_dashed_double-dotted
 70
   64
  3
----------- --- --- ------------
 72
   65
 73
    6
 40
17
 49
12
 49
-1.5
 49
0.25
 49
-1.5
 49
0.25
 49
-1.5
  0
LTYPE
  2
long_dashed_triplicate-dotted
 70
   64
  3
--------- --- --- --- ----------
 72
   65
 73
    8
 40
18.75
 49
12
 49
-1.5
 49
0.25
 49
-1.5
 49
0.25
 49
-1.5
 49
0.25
 49
-1.5
  0
LTYPE
  2
dotted
 70
   64
  3
   -       -       -       -    
 72
   65
 73
    2
 40
1.75
 49
0.25
 49
-1.5
  0
LTYPE
  2
chain
 70
   64
  3
-------------- -- --------------
 72
   65
 73
    4
 40
18.5
 49
12
 49
-1.5
 49
3.5
 49
-1.5
  0
LTYPE
  2
chain_double_dash
 70
   64
  3
------------ -- -- -------------
 72
   65
 73
    6
 40
23.5
 49
12
 49
-1.5
 49
3.5
 49
-1.5
 49
3.5
 49
-1.5
  0
LTYPE
  2
dashed_dotted
 70
   64
  3
-----------     -     ----------
 72
   65
 73
    4
 40
9.25
 49
6
 49
-1.5
 49
0.25
 49
-1.5
  0
LTYPE
  2
double-dashed_dotted
 70
   64
  3
------   -----------   -   -----
 72
   65
 73
    6
 40
16.75
 49
6
 49
-1.5
 49
6
 49
-1.5
 49
0.25
 49
-1.5
  0
LTYPE
  2
dashed_double-dotted
 70
   64
  3
---------    -    -    ---------
 72
   65
 73
    6
 40
11
 49
6
 49
-1.5
 49
0.25
 49
-1.5
 49
0.25
 49
-1.5
  0
LTYPE
  2
double-dashed_double-dotted
 70
   64
  3
-----   ---------   -   -   ----
 72
   65
 73
    8
 40
18.5
 49
6
 49
-1.5
 49
6
 49
-1.5
 49
0.25
 49
-1.5
 49
0.25
 49
-1.5
  0
LTYPE
  2
dashed_triplicate-dotted
 70
   64
  3
-------    -    -    -    ------
 72
   65
 73
    8
 40
12.75
 49
6
 49
-1.5
 49
0.25
 49
-1.5
 49
0.25
 49
-1.5
 49
0.25
 49
-1.5
  0
LTYPE
  2
double-dashed_triplicate-dotted
 70
   64
  3
-----  ---------  -  -  -  -----
 72
   65
 73
   10
 40
20.25
 49
6
 49
-1.5
 49
6
 49
-1.5
 49
0.25
 49
-1.5
 49
0.25
 49
-1.5
 49
0.25
 49
-1.5
  0
LTYPE
  2
undefined
 70
   64
  3
--------------------------------
 72
   65
 73
    0
 40
0
  0
LTYPE
  2
_
 70
   64
  3
                                
 72
   65
 73
    0
 40
0
  0
LTYPE
  2
__18
 70
   64
  3
                                
 72
   65
 73
    0
 40
0
  0
LTYPE
  2
__19
 70
   64
  3
                                
 72
   65
 73
    0
 40
0
  0
LTYPE
  2
__20
 70
   64
  3
                                
 72
   65
 73
    0
 40
0
  0
LTYPE
  2
__21
 70
   64
  3
                                
 72
   65
 73
    0
 40
0
  0
LTYPE
  2
__22
 70
   64
  3
                                
 72
   65
 73
    0
 40
0
  0
LTYPE
  2
__23
 70
   64
  3
                                
 72
   65
 73
    0
 40
0
  0
LTYPE
  2
__24
 70
   64
  3
                                
 72
   65
 73
    0
 40
0
  0
LTYPE
  2
__25
 70
   64
  3
                                
 72
   65
 73
    0
 40
0
  0
LTYPE
  2
__26
 70
   64
  3
                                
 72
   65
 73
    0
 40
0
  0
LTYPE
  2
__27
 70
   64
  3
                                
 72
   65
 73
    0
 40
0
  0
LTYPE
  2
__28
 70
   64
  3
                                
 72
   65
 73
    0
 40
0
  0
LTYPE
  2
__29
 70
   64
  3
                                
 72
   65
 73
    0
 40
0
  0
LTYPE
  2
__30
 70
   64
  3
                                
 72
   65
 73
    0
 40
0
  0
LTYPE
  2
__31
 70
   64
  3
                                
 72
   65
 73
    0
 40
0
  0
LTYPE
  2
__32
 70
   64
  3
                                
 72
   65
 73
    0
 40
0
  0
ENDTAB
  0
TABLE
  2
STYLE
  5
3
100
AcDbSymbolTable
 70
     1
  0
STYLE
  5
10
100
AcDbSymbolTableRecord
100
AcDbTextStyleTableRecord
  2
STANDARD
 70
     0
 40
0.0
 41
1.0
 50
0.0
 71
     0
 42
0.2
  3
txt
  4
bigfont.shx
  0
STYLE
  5
26
100
AcDbSymbolTableRecord
100
AcDbTextStyleTableRecord
  2
TATEGAKI
 70
    68
 40
0.0
 41
1.0
 50
0.0
 71
     0
 42
1.0
  3
txt
  4
bigfont.shx
  0
ENDTAB
  0
TABLE
  2
LAYER
 70
   10
  0
LAYER
  2
_0-0_
 70
   64
 62
    7
  6
CONTINUOUS
  0
LAYER
  2
_0-1_
 70
   64
 62
    7
  6
CONTINUOUS
  0
LAYER
  2
_0-2_
 70
   64
 62
    7
  6
CONTINUOUS
  0
LAYER
  2
_0-3_
 70
   64
 62
    7
  6
CONTINUOUS
  0
LAYER
  2
_0-4_
 70
   64
 62
    7
  6
CONTINUOUS
  0
LAYER
  2
_0-5_
 70
   64
 62
    7
  6
CONTINUOUS
  0
LAYER
  2
_0-7_
 70
   64
 62
    7
  6
CONTINUOUS
  0
LAYER
  2
_0-8_
 70
   64
 62
    7
  6
CONTINUOUS
  0
LAYER
  2
_0-f_
 70
   64
 62
    7
  6
CONTINUOUS
  0
LAYER
  2
ADD_LINE
 70
   64
 62
    7
  6
CONTINUOUS
  0
ENDTAB
  0
ENDSEC
  0
SECTION
  2
BLOCKS
  0
ENDSEC
  0
SECTION
  2
ENTITIES
  0
LINE
  8
_0-f_
  6
CONTINUOUS
 62
    3
 10
40
 20
40
 11
1640
 21
40
  0
LINE
  8
_0-f_
  6
CONTINUOUS
 62
    3
 10
1640
 20
40
 11
1640
 21
1148
  0
LINE
  8
_0-f_
  6
CONTINUOUS
 62
    3
 10
1640
 20
1148
 11
40
 21
1148
  0
LINE
  8
_0-f_
  6
CONTINUOUS
 62
    3
 10
40
 20
1148
 11
40
 21
40
  0
LINE
  8
_0-f_
  6
CONTINUOUS
 62
    7
 10
880
 20
76
 11
1640
 21
76
  0
LINE
  8
_0-f_
  6
CONTINUOUS
 62
    7
 10
880
 20
148
 11
1640
 21
148
  0
LINE
  8
_0-f_
  6
CONTINUOUS
 62
    7
 10
880
 20
40
 11
880
 21
184
  0
LINE
  8
_0-f_
  6
CONTINUOUS
 62
    7
 10
880
 20
184
 11
1640
 21
184
  0
LINE
  8
_0-f_
  6
CONTINUOUS
 62
    7
 10
1572
 20
40
 11
1572
 21
76
  0
LINE
  8
_0-f_
  6
CONTINUOUS
 62
    7
 10
1260
 20
76
 11
1260
 21
184
  0
LINE
  8
_0-f_
  6
CONTINUOUS
 62
    7
 10
1540
 20
112
 11
1540
 21
184
  0
LINE
  8
_0-f_
  6
CONTINUOUS
 62
    7
 10
1040
 20
76
 11
1040
 21
148
  0
LINE
  8
_0-f_
  6
CONTINUOUS
 62
    7
 10
960
 20
76
 11
960
 21
148
  0
LINE
  8
_0-f_
  6
CONTINUOUS
 62
    7
 10
1120
 20
112
 11
1640
 21
112
  0
LINE
  8
_0-f_
  6
CONTINUOUS
 62
    7
 10
1120
 20
40
 11
1120
 21
148
  0
TEXT
  8
_0-f_
 62
    7
 10
884
 20
168
 40
12
 41
0.6666666666666666
 50
0
  1
注
  0
TEXT
  8
_0-f_
 62
    7
 10
1264
 20
168
 40
12
 41
0.6666666666666666
 50
0
  1
材質　MATERIAL
  0
POINT
  8
_0-f_
 62
    9
 10
908
 20
150
  0
POINT
  8
_0-f_
 62
    9
 10
1296
 20
150
  0
POINT
  8
_0-f_
 62
    9
 10
1264
 20
168
  0
TEXT
  8
_0-f_
 62
    7
 10
1544
 20
168
 40
12
 41
0.6666666666666666
 50
0
  1
個数　QUANTITY
  0
TEXT
  8
_0-f_
 62
    7
 10
884
 20
132
 40
12
 41
0.6666666666666666
 50
0
  1
APPROVED
  0
TEXT
  8
_0-f_
 62
    7
 10
964
 20
132
 40
12
 41
0.6666666666666666
 50
0
  1
CHECKED
  0
TEXT
  8
_0-f_
 62
    7
 10
1044
 20
132
 40
12
 41
0.6666666666666666
 50
0
  1
DESIGNER
  0
TEXT
  8
_0-f_
 62
    7
 10
1124
 20
132
 40
12
 41
0.6666666666666666
 50
0
  1
図面サイズ　SIZU
  0
TEXT
  8
_0-f_
 62
    7
 10
1124
 20
96
 40
12
 41
0.6666666666666666
 50
0
  1
日付　DATE
  0
TEXT
  8
_0-f_
 62
    7
 10
1264
 20
132
 40
12
 41
0.6666666666666666
 50
0
  1
表面処理　SURFACE TREATMENT
  0
TEXT
  8
_0-f_
 62
    7
 10
1544
 20
132
 40
12
 41
0.6666666666666666
 50
0
  1
尺度　SCALE
  0
TEXT
  8
_0-f_
 62
    7
 10
1124
 20
58
 40
14
 41
0.7142857142857143
 50
0
  1
図　　番
  0
TEXT
  8
_0-f_
 62
    7
 10
1174
 20
64
 40
8
 41
1
 50
0
  1
DRAWING No
  0
TEXT
  8
_0-f_
 62
    7
 10
1296
 20
150
 40
14
 41
1
 50
0
  1
別記
  0
TEXT
  8
_0-f_
 62
    7
 10
1276
 20
114
 40
14
 41
1
 50
0
  1
別記
  0
TEXT
  8
_0-f_
 62
    7
 10
1564
 20
150
 40
14
 41
1
 50
0
  1
別記
  0
TEXT
  8
_0-f_
 62
    7
 10
1576
 20
60
 40
12
 41
0.6666666666666666
 50
0
  1
ユニット
  0
TEXT
  8
_0-f_
 62
    7
 10
1060
 20
78
 40
20
 41
1
 50
0
  1
玉置
  0
TEXT
  8
_0-f_
 62
    7
 10
956
 20
46
 40
24
 41
0.8333333333333333
 50
0
  1
株式会社アウス
  0
POINT
  8
_0-f_
 62
    9
 10
920
 20
78
  0
POINT
  8
_0-f_
 62
    9
 10
1000
 20
78
  0
POINT
  8
_0-f_
 62
    9
 10
1080
 20
78
  0
POINT
  8
_0-f_
 62
    9
 10
884
 20
132
  0
POINT
  8
_0-f_
 62
    9
 10
964
 20
132
  0
POINT
  8
_0-f_
 62
    9
 10
1044
 20
132
  0
POINT
  8
_0-f_
 62
    9
 10
1124
 20
132
  0
POINT
  8
_0-f_
 62
    9
 10
1264
 20
132
  0
POINT
  8
_0-f_
 62
    9
 10
1276
 20
114
  0
POINT
  8
_0-f_
 62
    9
 10
1124
 20
58
  0
POINT
  8
_0-f_
 62
    9
 10
956
 20
46
  0
POINT
  8
_0-f_
 62
    9
 10
1276
 20
42
  0
POINT
  8
_0-f_
 62
    9
 10
1276
 20
78
  0
POINT
  8
_0-f_
 62
    9
 10
1552
 20
114
  0
POINT
  8
_0-f_
 62
    9
 10
1544
 20
132
  0
POINT
  8
_0-f_
 62
    9
 10
1544
 20
168
  0
POINT
  8
_0-f_
 62
    9
 10
1564
 20
150
  0
POINT
  8
_0-f_
 62
    9
 10
1592
 20
42
  0
POINT
  8
_0-f_
 62
    9
 10
1576
 20
60
  0
POINT
  8
_0-f_
 62
    9
 10
1124
 20
96
  0
POINT
  8
_0-f_
 62
    9
 10
1190
 20
114
  0
POINT
  8
_0-f_
 62
    9
 10
1190
 20
78
  0
TEXT
  8
_0-f_
 62
    7
 10
1264
 20
98
 40
12
 41
0.6666666666666666
 50
0
  1
図面名　TITLE
  0
POINT
  8
_0-f_
 62
    9
 10
1264
 20
98
  0
TEXT
  8
_0-f_
 62
    7
 10
908
 20
150
 40
14
 41
1
 50
0
  1
　
  0
TEXT
  8
_0-f_
 62
    7
 10
1592
 20
42
 40
14
 41
1
 50
0
  1
　
  0
TEXT
  8
_0-f_
 62
    7
 10
1176
 20
114
 40
14
 41
1
 50
0
  1
Ａ３
  0
TEXT
  8
_0-f_
 62
    7
 10
1592
 20
42
 40
14
 41
1
 50
0
  1
SB
  0
POINT
  8
_0-1_
 62
    9
 10
897.99993573141603
 20
972
  0
LINE
  8
_0-0_
  6
CONTINUOUS
 62
    2
 10
196.99999621906102
 20
1044
 11
208.59110613452981
 21
1047.1058285412303
  0
LINE
  8
_0-0_
  6
CONTINUOUS
 62
    2
 10
196.99999621906102
 20
1044
 11
208.59110613452981
 21
1040.8941714587697
  0
LINE
  8
_0-0_
  6
CONTINUOUS
 62
    2
 10
755.00003078764507
 20
1044
 11
743.40892087217628
 21
1047.1058285412303
  0
LINE
  8
_0-0_
  6
CONTINUOUS
 62
    2
 10
755.00003078764507
 20
1044
 11
743.40892087217628
 21
1040.8941714587697
  0
LINE
  8
_0-0_
  6
CONTINUOUS
 62
    2
 10
196.99999621906102
 20
1048
 11
196.99999621906102
 21
954.99998487624441
  0
LINE
  8
_0-0_
  6
CONTINUOUS
 62
    2
 10
755.00003078764507
 20
1048
 11
755.00003078764507
 21
954.99998487624441
  0
LINE
  8
_0-0_
  6
CONTINUOUS
 62
    2
 10
196.99999621906102
 20
1044
 11
755.00003078764507
 21
1044
  0
TEXT
  8
_0-0_
 62
    7
 10
460.00001350335305
 20
1046
 40
20
 41
1
 50
0
  1
558
  0
LINE
  8
_0-0_
  6
CONTINUOUS
 62
    2
 10
176
 20
1076
 11
187.59110991546879
 21
1079.1058285412303
  0
LINE
  8
_0-0_
  6
CONTINUOUS
 62
    2
 10
176
 20
1076
 11
187.59110991546879
 21
1072.8941714587697
  0
LINE
  8
_0-0_
  6
CONTINUOUS
 62
    2
 10
775.99997029262295
 20
1076
 11
764.40886037715416
 21
1079.1058285412303
  0
LINE
  8
_0-0_
  6
CONTINUOUS
 62
    2
 10
775.99997029262295
 20
1076
 11
764.40886037715416
 21
1072.8941714587697
  0
LINE
  8
_0-0_
  6
CONTINUOUS
 62
    2
 10
176
 20
1080
 11
176
 21
976
  0
LINE
  8
_0-0_
  6
CONTINUOUS
 62
    2
 10
775.99997029262295
 20
1080
 11
775.99997029262295
 21
976
  0
LINE
  8
_0-0_
  6
CONTINUOUS
 62
    2
 10
176
 20
1076
 11
775.99997029262295
 21
1076
  0
TEXT
  8
_0-0_
 62
    7
 10
459.99998514631147
 20
1078
 40
20
 41
1
 50
0
  1
600
  0
LINE
  8
_0-0_
  6
CONTINUOUS
 62
    2
 10
144
 20
592.99997191302543
 11
140.89417145876973
 21
604.59108182849423
  0
LINE
  8
_0-0_
  6
CONTINUOUS
 62
    2
 10
144
 20
592.99997191302543
 11
147.10582854123027
 21
604.59108182849423
  0
LINE
  8
_0-0_
  6
CONTINUOUS
 62
    2
 10
144
 20
950.99998487624441
 11
140.89417145876973
 21
939.40887496077562
  0
LINE
  8
_0-0_
  6
CONTINUOUS
 62
    2
 10
144
 20
950.99998487624441
 11
147.10582854123027
 21
939.40887496077562
  0
LINE
  8
_0-0_
  6
CONTINUOUS
 62
    2
 10
140
 20
592.99997191302543
 11
192.99999621906102
 21
592.99997191302543
  0
LINE
  8
_0-0_
  6
CONTINUOUS
 62
    2
 10
140
 20
950.99998487624441
 11
192.99999621906102
 21
950.99998487624441
  0
LINE
  8
_0-0_
  6
CONTINUOUS
 62
    2
 10
144
 20
592.99997191302543
 11
144
 21
950.99998487624441
  0
TEXT
  8
_0-0_
 62
    7
 10
142
 20
755.99997839463492
 40
20
 41
1
 50
90
  1
358
  0
LINE
  8
_0-0_
  6
CONTINUOUS
 62
    2
 10
112
 20
571.99995678926985
 11
108.89417145876973
 21
583.59106670473864
  0
LINE
  8
_0-0_
  6
CONTINUOUS
 62
    2
 10
112
 20
571.99995678926985
 11
115.10582854123027
 21
583.59106670473864
  0
LINE
  8
_0-0_
  6
CONTINUOUS
 62
    2
 10
112
 20
972
 11
108.89417145876973
 21
960.40889008453121
  0
LINE
  8
_0-0_
  6
CONTINUOUS
 62
    2
 10
112
 20
972
 11
115.10582854123027
 21
960.40889008453121
  0
LINE
  8
_0-0_
  6
CONTINUOUS
 62
    2
 10
108
 20
571.99995678926985
 11
172
 21
571.99995678926985
  0
LINE
  8
_0-0_
  6
CONTINUOUS
 62
    2
 10
108
 20
972
 11
172
 21
972
  0
LINE
  8
_0-0_
  6
CONTINUOUS
 62
    2
 10
112
 20
571.99995678926985
 11
112
 21
972
  0
TEXT
  8
_0-0_
 62
    7
 10
110
 20
755.99997839463492
 40
20
 41
1
 50
90
  1
400
  0
LINE
  8
_0-0_
  6
CONTINUOUS
 62
    2
 10
897.99993573141603
 20
1076
 11
909.59104564688482
 21
1079.1058285412303
  0
LINE
  8
_0-0_
  6
CONTINUOUS
 62
    2
 10
897.99993573141603
 20
1076
 11
909.59104564688482
 21
1072.8941714587697
  0
LINE
  8
_0-0_
  6
CONTINUOUS
 62
    2
 10
1047.9999638183904
 20
1076
 11
1036.4088539029217
 21
1079.1058285412303
  0
LINE
  8
_0-0_
  6
CONTINUOUS
 62
    2
 10
1047.9999638183904
 20
1076
 11
1036.4088539029217
 21
1072.8941714587697
  0
LINE
  8
_0-0_
  6
CONTINUOUS
 62
    2
 10
897.99993573141603
 20
1080
 11
897.99993573141603
 21
976
  0
LINE
  8
_0-0_
  6
CONTINUOUS
 62
    2
 10
1047.9999638183904
 20
1080
 11
1047.9999638183904
 21
958.9999913578539
  0
LINE
  8
_0-0_
  6
CONTINUOUS
 62
    2
 10
897.99993573141603
 20
1076
 11
1047.9999638183904
 21
1076
  0
TEXT
  8
_0-0_
 62
    7
 10
956.99994977490326
 20
1078
 40
20
 41
1
 50
0
  1
150
  0
LINE
  8
_0-0_
  6
CONTINUOUS
 62
    2
 10
1109.4999638183904
 20
588.99996543141594
 11
1106.3941352771603
 21
600.59107534688474
  0
LINE
  8
_0-0_
  6
CONTINUOUS
 62
    2
 10
1109.4999638183904
 20
588.99996543141594
 11
1112.6057923596209
 21
600.59107534688474
  0
LINE
  8
_0-0_
  6
CONTINUOUS
 62
    2
 10
1109.4999638183904
 20
954.9999913578539
 11
1106.3941352771603
 21
943.40888144238511
  0
LINE
  8
_0-0_
  6
CONTINUOUS
 62
    2
 10
1109.4999638183904
 20
954.9999913578539
 11
1112.6057923596209
 21
943.40888144238511
  0
LINE
  8
_0-0_
  6
CONTINUOUS
 62
    2
 10
1113.4999638183904
 20
588.99996543141594
 11
1053.4999638183906
 21
588.99996543141594
  0
LINE
  8
_0-0_
  6
CONTINUOUS
 62
    2
 10
1113.4999638183904
 20
954.9999913578539
 11
1053.4999638183904
 21
954.9999913578539
  0
LINE
  8
_0-0_
  6
CONTINUOUS
 62
    2
 10
1109.4999638183904
 20
588.99996543141594
 11
1109.4999638183904
 21
954.9999913578539
  0
TEXT
  8
_0-0_
 62
    7
 10
1107.4999638183904
 20
755.99997839463492
 40
20
 41
1
 50
90
  1
366
  0
LINE
  8
_0-0_
  6
CONTINUOUS
 62
    2
 10
192.99998973745153
 20
239.99999406925468
 11
204.59109965292032
 21
243.10582261048495
  0
LINE
  8
_0-0_
  6
CONTINUOUS
 62
    2
 10
192.99998973745153
 20
239.99999406925468
 11
204.59109965292032
 21
236.89416552802442
  0
LINE
  8
_0-0_
  6
CONTINUOUS
 62
    2
 10
758.99996165047696
 20
239.99999406925468
 11
747.40885173500817
 21
243.10582261048495
  0
LINE
  8
_0-0_
  6
CONTINUOUS
 62
    2
 10
758.99996165047696
 20
239.99999406925468
 11
747.40885173500817
 21
236.89416552802442
  0
LINE
  8
_0-0_
  6
CONTINUOUS
 62
    2
 10
192.99998973745153
 20
235.99999406925468
 11
192.99998973745153
 21
294.49998218630395
  0
LINE
  8
_0-0_
  6
CONTINUOUS
 62
    2
 10
758.99996165047696
 20
235.99999406925468
 11
758.99996165047696
 21
294.49998218630395
  0
LINE
  8
_0-0_
  6
CONTINUOUS
 62
    2
 10
192.99998973745153
 20
239.99999406925468
 11
758.99996165047696
 21
239.99999406925468
  0
TEXT
  8
_0-0_
 62
    7
 10
459.99997569396425
 20
241.99999406925468
 40
20
 41
1
 50
0
  1
566
  0
LINE
  8
_0-1_
  6
CONTINUOUS
 62
    7
 10
775.99997029262295
 20
972
 11
176
 21
972
  0
LINE
  8
_0-1_
  6
CONTINUOUS
 62
    7
 10
176
 20
972
 11
176
 21
571.99995678926985
  0
LINE
  8
_0-1_
  6
CONTINUOUS
 62
    7
 10
756.0000135033531
 20
951.99996759195244
 11
195.99999459865865
 21
951.99996759195244
  0
LINE
  8
_0-1_
  6
CONTINUOUS
 62
    7
 10
195.99999459865865
 20
951.99996759195244
 11
195.99999459865865
 21
591.9999513879286
  0
LINE
  8
_0-1_
  6
CONTINUOUS
 62
    7
 10
756.0000135033531
 20
591.9999513879286
 11
756.0000135033531
 21
951.99996759195244
  0
LINE
  8
_0-1_
  6
CONTINUOUS
 62
    7
 10
756.0000135033531
 20
591.9999513879286
 11
195.99999459865865
 21
591.9999513879286
  0
LINE
  8
_0-1_
  6
CONTINUOUS
 62
    7
 10
775.99997029262295
 20
571.99995678926985
 11
775.99997029262295
 21
972
  0
LINE
  8
_0-1_
  6
CONTINUOUS
 62
    7
 10
775.99997029262295
 20
571.99995678926985
 11
176
 21
571.99995678926985
  0
LINE
  8
_0-1_
  6
CONTINUOUS
 62
    7
 10
899.49990980497796
 20
972
 11
909.99995517624461
 21
972
  0
ARC
  8
_0-1_
  6
CONTINUOUS
 62
    7
 10
899.49990980497796
 20
970.49995030766036
 40
1.5000000675167657
 50
89.999969482421875
 51
180.00001525878906
  0
LINE
  8
_0-1_
  6
CONTINUOUS
 62
    7
 10
897.99993573141603
 20
970.49995030766036
 11
897.99993573141603
 21
573.49996867222069
  0
LINE
  8
_0-1_
  6
CONTINUOUS
 62
    7
 10
909.99995517624461
 20
954.9999913578539
 11
1046.4999400524889
 21
954.9999913578539
  0
LINE
  8
_0-1_
  6
CONTINUOUS
 62
    7
 10
909.99995517624461
 20
972
 11
909.99995517624461
 21
571.99995678926985
  0
LINE
  8
_0-1_
  6
CONTINUOUS
 62
    7
 10
1046.4999400524889
 20
954.9999913578539
 11
1046.4999400524889
 21
951.99996759195244
  0
ARC
  8
_0-1_
  6
CONTINUOUS
 62
    7
 10
1046.4999400524889
 20
951.99996759195244
 40
1.5
 50
0
 51
90
  0
LINE
  8
_0-1_
  6
CONTINUOUS
 62
    7
 10
1049.4999638183904
 20
951.99996759195244
 11
1046.4999400524889
 21
951.99996759195244
  0
LINE
  8
_0-1_
  6
CONTINUOUS
 62
    7
 10
1049.4999638183904
 20
951.99996759195244
 11
1049.4999638183904
 21
591.9999513879286
  0
LINE
  8
_0-1_
  6
CONTINUOUS
 62
    7
 10
1049.4999638183904
 20
591.9999513879286
 11
1046.4999400524889
 21
591.9999513879286
  0
ARC
  8
_0-1_
  6
CONTINUOUS
 62
    7
 10
1046.4999400524889
 20
591.9999513879286
 40
1.5
 50
270
 51
0
  0
LINE
  8
_0-1_
  6
CONTINUOUS
 62
    7
 10
1046.4999400524889
 20
588.99996543141594
 11
1046.4999400524889
 21
591.9999513879286
  0
LINE
  8
_0-1_
  6
CONTINUOUS
 62
    7
 10
1046.4999400524889
 20
588.99996543141594
 11
909.99995517624461
 21
588.99996543141594
  0
LINE
  8
_0-1_
  6
CONTINUOUS
 62
    7
 10
899.49990980497796
 20
571.99995678926985
 11
909.99995517624461
 21
571.99995678926985
  0
ARC
  8
_0-1_
  6
CONTINUOUS
 62
    7
 10
899.49990980497796
 20
573.49996867222069
 40
1.5000000675167657
 50
180.00001525878906
 51
270
  0
LINE
  8
_0-1_
  6
CONTINUOUS
 62
    7
 10
775.99997029262295
 20
437.9999719237556
 11
176
 21
437.9999719237556
  0
LINE
  8
_0-1_
  6
CONTINUOUS
 62
    7
 10
775.99997029262295
 20
448.49997948563333
 11
775.99997029262295
 21
437.9999719237556
  0
ARC
  8
_0-1_
  6
CONTINUOUS
 62
    7
 10
774.49999621906102
 20
448.49997948563333
 40
1.5000000675167657
 50
0
 51
89.999969482421875
  0
LINE
  8
_0-1_
  6
CONTINUOUS
 62
    7
 10
774.49999621906102
 20
449.99999136858406
 11
177.49999297825627
 21
449.99999136858406
  0
LINE
  8
_0-1_
  6
CONTINUOUS
 62
    7
 10
758.99996165047696
 20
437.9999719237556
 11
758.99996165047696
 21
299.99999406925468
  0
LINE
  8
_0-1_
  6
CONTINUOUS
 62
    7
 10
755.83009810996259
 20
432.49999136858406
 11
747.16985759903889
 21
427.50000217126654
  0
LINE
  8
_0-1_
  6
CONTINUOUS
 62
    7
 10
751.5000156638896
 20
434.99998596724282
 11
751.5000156638896
 21
424.9999697632191
  0
LINE
  8
_0-1_
  6
CONTINUOUS
 62
    7
 10
747.16985759903889
 20
432.49999136858406
 11
755.83009810996259
 21
427.50000217126654
  0
LINE
  8
_0-1_
  6
CONTINUOUS
 62
    7
 10
743.99999405852452
 20
437.9999719237556
 11
743.99999405852452
 21
298.49998218630395
  0
LINE
  8
_0-1_
  6
CONTINUOUS
 62
    7
 10
751.5000156638896
 20
379.99999136858406
 11
751.5000156638896
 21
369.99999406925468
  0
LINE
  8
_0-1_
  6
CONTINUOUS
 62
    7
 10
755.83009810996259
 20
377.49997786523096
 11
747.16985759903889
 21
372.49998866791344
  0
LINE
  8
_0-1_
  6
CONTINUOUS
 62
    7
 10
747.16985759903889
 20
377.49997786523096
 11
755.83009810996259
 21
372.49998866791344
  0
LINE
  8
_0-1_
  6
CONTINUOUS
 62
    7
 10
755.83009810996259
 20
322.4999832665722
 11
747.16985759903889
 21
317.49999406925468
  0
LINE
  8
_0-1_
  6
CONTINUOUS
 62
    7
 10
751.5000156638896
 20
324.99997786523096
 11
751.5000156638896
 21
314.99998056590158
  0
LINE
  8
_0-1_
  6
CONTINUOUS
 62
    7
 10
747.16985759903889
 20
322.4999832665722
 11
755.83009810996259
 21
317.49999406925468
  0
LINE
  8
_0-1_
  6
CONTINUOUS
 62
    7
 10
758.99996165047696
 20
299.99999406925468
 11
192.99998973745153
 21
299.99999406925468
  0
LINE
  8
_0-1_
  6
CONTINUOUS
 62
    7
 10
757.49998757691503
 20
298.49998218630395
 11
743.99999405852452
 21
298.49998218630395
  0
ARC
  8
_0-1_
  6
CONTINUOUS
 62
    7
 10
757.49998757691503
 20
299.99999406925468
 40
1.5000000675167657
 50
270
 51
0
  0
ARC
  8
_0-1_
  6
CONTINUOUS
 62
    7
 10
177.49999297825627
 20
448.49997948563333
 40
1.5000000675167657
 50
89.999969482421875
 51
180.00001525878906
  0
LINE
  8
_0-1_
  6
CONTINUOUS
 62
    7
 10
176
 20
448.49997948563333
 11
176
 21
437.9999719237556
  0
LINE
  8
_0-1_
  6
CONTINUOUS
 62
    7
 10
192.99998973745153
 20
299.99999406925468
 11
192.99998973745153
 21
437.9999719237556
  0
LINE
  8
_0-1_
  6
CONTINUOUS
 62
    7
 10
204.8301315982784
 20
432.49999136858406
 11
196.16987218266036
 21
427.50000217126654
  0
LINE
  8
_0-1_
  6
CONTINUOUS
 62
    7
 10
200.49999243812215
 20
434.99998596724282
 11
200.49999243812215
 21
424.9999697632191
  0
LINE
  8
_0-1_
  6
CONTINUOUS
 62
    7
 10
196.16987218266036
 20
432.49999136858406
 11
204.8301315982784
 21
427.50000217126654
  0
LINE
  8
_0-1_
  6
CONTINUOUS
 62
    7
 10
207.99999513879277
 20
437.9999719237556
 11
207.99999513879277
 21
298.49998218630395
  0
LINE
  8
_0-1_
  6
CONTINUOUS
 62
    7
 10
200.49999243812215
 20
379.99999136858406
 11
200.49999243812215
 21
369.99999406925468
  0
LINE
  8
_0-1_
  6
CONTINUOUS
 62
    7
 10
196.16987218266036
 20
377.49997786523096
 11
204.8301315982784
 21
372.49998866791344
  0
LINE
  8
_0-1_
  6
CONTINUOUS
 62
    7
 10
204.8301315982784
 20
377.49997786523096
 11
196.16987218266036
 21
372.49998866791344
  0
LINE
  8
_0-1_
  6
CONTINUOUS
 62
    7
 10
200.49999243812215
 20
324.99997786523096
 11
200.49999243812215
 21
314.99998056590158
  0
LINE
  8
_0-1_
  6
CONTINUOUS
 62
    7
 10
196.16987218266036
 20
322.4999832665722
 11
204.8301315982784
 21
317.49999406925468
  0
LINE
  8
_0-1_
  6
CONTINUOUS
 62
    7
 10
204.8301315982784
 20
322.4999832665722
 11
196.16987218266036
 21
317.49999406925468
  0
ARC
  8
_0-1_
  6
CONTINUOUS
 62
    7
 10
194.50000162040237
 20
299.99999406925468
 40
1.5000000675167657
 50
180.00001525878906
 51
270
  0
LINE
  8
_0-1_
  6
CONTINUOUS
 62
    7
 10
194.50000162040237
 20
298.49998218630395
 11
207.99999513879277
 21
298.49998218630395
  0
LINE
  8
_0-2_
  6
CONTINUOUS
 62
    7
 10
755.00003078764507
 20
950.99998487624441
 11
196.99999621906102
 21
950.99998487624441
  0
LINE
  8
_0-2_
  6
CONTINUOUS
 62
    7
 10
196.99999621906102
 20
950.99998487624441
 11
196.99999621906102
 21
592.99997191302543
  0
LINE
  8
_0-2_
  6
DASHED2
 62
    4
 10
746.50002646657208
 20
811.99996759195244
 11
205.50000054013412
 21
811.99996759195244
  0
LINE
  8
_0-2_
  6
DASHED2
 62
    4
 10
746.50002646657208
 20
795.99994166551437
 11
205.50000054013412
 21
795.99994166551437
  0
LINE
  8
_0-2_
  6
DASHED2
 62
    4
 10
746.50002646657208
 20
747.99993950497787
 11
205.50000054013412
 21
747.99993950497787
  0
LINE
  8
_0-2_
  6
DASHED2
 62
    4
 10
746.50002646657208
 20
731.9999891973174
 11
205.50000054013412
 21
731.9999891973174
  0
LINE
  8
_0-2_
  6
DASHED2
 62
    4
 10
205.50000054013412
 20
811.99996759195244
 11
205.50000054013412
 21
731.9999891973174
  0
LINE
  8
_0-2_
  6
CONTINUOUS
 62
    7
 10
755.00003078764507
 20
592.99997191302543
 11
196.99999621906102
 21
592.99997191302543
  0
LINE
  8
_0-2_
  6
CONTINUOUS
 62
    7
 10
755.00003078764507
 20
592.99997191302543
 11
755.00003078764507
 21
950.99998487624441
  0
LINE
  8
_0-2_
  6
DASHED2
 62
    4
 10
746.50002646657208
 20
811.99996759195244
 11
746.50002646657208
 21
731.9999891973174
  0
LINE
  8
_0-3_
  6
CONTINUOUS
 62
    7
 10
540.99998649664678
 20
937.99998271570792
 11
411.00000270067056
 21
937.99998271570792
  0
LINE
  8
_0-3_
  6
CONTINUOUS
 62
    7
 10
411.00000270067056
 20
937.99998271570792
 11
411.00000270067056
 21
852.99993950497787
  0
ARC
  8
_0-3_
  6
CONTINUOUS
 62
    7
 10
435.49999513879283
 20
903.99996543141594
 40
4.9999998312080853
 50
89.999969482421875
 51
180.00001525878906
  0
LINE
  8
_0-3_
  6
CONTINUOUS
 62
    7
 10
435.49999513879283
 20
908.99995462873335
 11
516.49999405852452
 21
908.99995462873335
  0
LINE
  8
_0-3_
  6
CONTINUOUS
 62
    7
 10
430.50000594147537
 20
903.99996543141594
 11
430.50000594147537
 21
877.99996111034284
  0
ARC
  8
_0-3_
  6
CONTINUOUS
 62
    7
 10
435.49999513879283
 20
877.99996111034284
 40
4.9999998312080853
 50
180.00001525878906
 51
270
  0
LINE
  8
_0-3_
  6
CONTINUOUS
 62
    7
 10
435.49999513879283
 20
872.99997191302543
 11
516.49999405852452
 21
872.99997191302543
  0
ARC
  8
_0-3_
  6
CONTINUOUS
 62
    7
 10
516.49999405852452
 20
877.99996111034284
 40
4.9999998312080853
 50
270
 51
0
  0
LINE
  8
_0-3_
  6
CONTINUOUS
 62
    7
 10
521.49998325584204
 20
903.99996543141594
 11
521.49998325584204
 21
877.99996111034284
  0
ARC
  8
_0-3_
  6
CONTINUOUS
 62
    7
 10
516.49999405852452
 20
903.99996543141594
 40
4.9999998312080853
 50
0
 51
89.999969482421875
  0
LINE
  8
_0-3_
  6
CONTINUOUS
 62
    7
 10
540.99998649664678
 20
937.99998271570792
 11
540.99998649664678
 21
852.99993950497787
  0
LINE
  8
_0-3_
  6
CONTINUOUS
 62
    7
 10
411.00000270067056
 20
852.99993950497787
 11
540.99998649664678
 21
852.99993950497787
  0
LINE
  8
_0-3_
  6
CONTINUOUS
 62
    7
 10
897.99993573141603
 20
937.99998271570792
 11
895.99997030000009
 21
935.99994166551437
  0
LINE
  8
_0-3_
  6
CONTINUOUS
 62
    7
 10
895.99997030000009
 20
854.99998055517142
 11
895.99997030000009
 21
935.99994166551437
  0
LINE
  8
_0-3_
  6
CONTINUOUS
 62
    7
 10
895.99997030000009
 20
854.99998055517142
 11
897.99993573141603
 21
852.99993950497787
  0
LINE
  8
_0-3_
  6
CONTINUOUS
 62
    7
 10
413.00004375086411
 20
451.99995680000001
 11
411.00000270067056
 21
449.99999136858406
  0
LINE
  8
_0-3_
  6
CONTINUOUS
 62
    7
 10
413.00004375086411
 20
451.99995680000001
 11
538.99994544645324
 21
451.99995680000001
  0
LINE
  8
_0-3_
  6
CONTINUOUS
 62
    7
 10
540.99998649664678
 20
449.99999136858406
 11
538.99994544645324
 21
451.99995680000001
  0
LINE
  8
_0-5_
  6
DASHED2
 62
    4
 10
327.50000918228011
 20
872.99994591907068
 11
327.50000918228011
 21
843.99991783209612
  0
LINE
  8
_0-5_
  6
DASHED2
 62
    4
 10
324.49998541637854
 20
872.99994591907068
 11
324.49998541637854
 21
843.99991783209612
  0
LINE
  8
_0-5_
  6
DASHED2
 62
    4
 10
328.99998325584204
 20
822.49991135048663
 11
328.99998325584204
 21
842.49994375853419
  0
LINE
  8
_0-5_
  6
DASHED2
 62
    4
 10
332.00000702174361
 20
822.49991135048663
 11
332.00000702174361
 21
842.49994375853419
  0
LINE
  8
_0-5_
  6
DASHED2
 62
    4
 10
323.00001134281661
 20
822.49991135048663
 11
323.00001134281661
 21
842.49994375853419
  0
LINE
  8
_0-5_
  6
DASHED2
 62
    4
 10
319.99998757691515
 20
822.49991135048663
 11
319.99998757691515
 21
842.49994375853419
  0
LINE
  8
_0-5_
  6
DASHED2
 62
    4
 10
332.00000702174361
 20
894.49995240068017
 11
332.00000702174361
 21
874.49991999263261
  0
LINE
  8
_0-5_
  6
DASHED2
 62
    4
 10
328.99998325584204
 20
894.49995240068017
 11
328.99998325584204
 21
874.49991999263261
  0
LINE
  8
_0-5_
  6
DASHED2
 62
    4
 10
323.00001134281661
 20
894.49995240068017
 11
323.00001134281661
 21
874.49991999263261
  0
LINE
  8
_0-5_
  6
DASHED2
 62
    4
 10
319.99998757691515
 20
894.49995240068017
 11
319.99998757691515
 21
874.49991999263261
  0
LINE
  8
_0-5_
  6
DASHED2
 62
    4
 10
327.50000918228011
 20
904.99992215316911
 11
327.50000918228011
 21
895.9999264742421
  0
LINE
  8
_0-5_
  6
DASHED2
 62
    4
 10
324.49998541637854
 20
904.99992215316911
 11
324.49998541637854
 21
895.9999264742421
  0
ARC
  8
_0-5_
  6
DASHED2
 62
    4
 10
325.99999729932938
 20
843.99991783209612
 40
1.5000000675167657
 50
180.00001525878906
 51
270
  0
ARC
  8
_0-5_
  6
DASHED2
 62
    4
 10
325.99999729932938
 20
843.99991783209612
 40
1.5000000675167657
 50
270
 51
0
  0
ARC
  8
_0-5_
  6
DASHED2
 62
    4
 10
325.99999729932938
 20
872.99994591907068
 40
1.5000000675167657
 50
0
 51
89.999969482421875
  0
ARC
  8
_0-5_
  6
DASHED2
 62
    4
 10
325.99999729932938
 20
872.99994591907068
 40
1.5000000675167657
 50
89.999969482421875
 51
180.00001525878906
  0
ARC
  8
_0-5_
  6
DASHED2
 62
    4
 10
325.99999729932938
 20
874.49991999263261
 40
6.0000002700670629
 50
284.47749328613281
 51
0.0000000000000127
  0
ARC
  8
_0-5_
  6
DASHED2
 62
    4
 10
325.99999729932938
 20
874.49991999263261
 40
3.0000001350335315
 50
299.78858947753906
 51
0
  0
ARC
  8
_0-5_
  6
DASHED2
 62
    4
 10
325.99999729932938
 20
874.49991999263261
 40
3.0000001350335315
 50
180.00001525878906
 51
240.42987060546875
  0
ARC
  8
_0-5_
  6
DASHED2
 62
    4
 10
325.99999729932938
 20
874.49991999263261
 40
6.0000002700670629
 50
180.00001525878906
 51
255.39689636230469
  0
ARC
  8
_0-5_
  6
DASHED2
 62
    4
 10
325.99999729932938
 20
842.49994375853419
 40
6.0000002700670629
 50
0
 51
75.522476196289063
  0
ARC
  8
_0-5_
  6
DASHED2
 62
    4
 10
325.99999729932938
 20
842.49994375853419
 40
3.0000001350335315
 50
0
 51
60.211380004882805
  0
ARC
  8
_0-5_
  6
DASHED2
 62
    4
 10
325.99999729932938
 20
842.49994375853419
 40
6.0000002700670629
 50
104.60311889648437
 51
180.00001525878906
  0
ARC
  8
_0-5_
  6
DASHED2
 62
    4
 10
325.99999729932938
 20
842.49994375853419
 40
3.0000001350335315
 50
119.57009887695312
 51
180.00001525878903
  0
ARC
  8
_0-5_
  6
DASHED2
 62
    4
 10
325.99999729932938
 20
822.49991135048663
 40
3.0000001350335315
 50
180.00001525878906
 51
0
  0
ARC
  8
_0-5_
  6
DASHED2
 62
    4
 10
325.99999729932938
 20
822.49991135048663
 40
6.0000002700670629
 50
180.00001525878906
 51
0
  0
ARC
  8
_0-5_
  6
DASHED2
 62
    4
 10
325.99999729932938
 20
894.49995240068017
 40
6.0000002700670629
 50
0
 51
75.522476196289063
  0
ARC
  8
_0-5_
  6
DASHED2
 62
    4
 10
325.99999729932938
 20
894.49995240068017
 40
3.0000001350335315
 50
0
 51
60.211380004882805
  0
ARC
  8
_0-5_
  6
DASHED2
 62
    4
 10
325.99999729932938
 20
894.49995240068017
 40
3.0000001350335315
 50
119.57009887695312
 51
180.00001525878903
  0
ARC
  8
_0-5_
  6
DASHED2
 62
    4
 10
325.99999729932938
 20
894.49995240068017
 40
6.0000002700670629
 50
104.60311889648437
 51
180.00001525878906
  0
ARC
  8
_0-5_
  6
DASHED2
 62
    4
 10
325.99999729932938
 20
895.9999264742421
 40
1.5000000675167657
 50
270
 51
0
  0
ARC
  8
_0-5_
  6
DASHED2
 62
    4
 10
325.99999729932938
 20
895.9999264742421
 40
1.5000000675167657
 50
180.00001525878906
 51
270
  0
ARC
  8
_0-5_
  6
DASHED2
 62
    4
 10
325.99999729932938
 20
904.99992215316911
 40
1.5000000675167657
 50
0
 51
89.999969482421875
  0
ARC
  8
_0-5_
  6
DASHED2
 62
    4
 10
325.99999729932938
 20
904.99992215316911
 40
1.5000000675167657
 50
89.999969482421875
 51
180.00001525878906
  0
LINE
  8
_0-7_
  6
DASHED2
 62
    4
 10
733.00003294818168
 20
623.99997606530656
 11
733.00003294818168
 21
613.9999764028903
  0
LINE
  8
_0-7_
  6
DASHED2
 62
    4
 10
773.00002214549909
 20
621.9999621906112
 11
773.00002214549909
 21
615.99995246819685
  0
LINE
  8
_0-7_
  6
DASHED2
 62
    4
 10
178.99998595651266
 20
621.9999621906112
 11
178.99998595651266
 21
615.99995246819685
  0
ARC
  8
_0-7_
  6
DASHED2
 62
    4
 10
733.00003294818168
 20
618.99997623409843
 40
4.9999998312080853
 50
90
 51
270
  0
LINE
  8
_0-7_
  6
DASHED2
 62
    4
 10
733.00003294818168
 20
621.9999621906112
 11
773.00002214549909
 21
621.9999621906112
  0
LINE
  8
_0-7_
  6
DASHED2
 62
    4
 10
733.00003294818168
 20
615.99995246819685
 11
773.00002214549909
 21
615.99995246819685
  0
LINE
  8
_0-7_
  6
DASHED2
 62
    4
 10
218.99999405852452
 20
623.99997606530656
 11
218.99999405852452
 21
613.9999764028903
  0
ARC
  8
_0-7_
  6
DASHED2
 62
    4
 10
218.99999405852452
 20
618.99997623409843
 40
4.9999998312080853
 50
270
 51
90
  0
LINE
  8
_0-7_
  6
DASHED2
 62
    4
 10
218.99999405852452
 20
621.9999621906112
 11
178.99998595651266
 21
621.9999621906112
  0
LINE
  8
_0-7_
  6
DASHED2
 62
    4
 10
218.99999405852452
 20
615.99995246819685
 11
178.99998595651266
 21
615.99995246819685
  0
LINE
  8
_0-8_
  6
CONTINUOUS
 62
    7
 10
422.49997811662467
 20
927.50000007148833
 11
423.1499859215628
 21
927.50000007148833
  0
LINE
  8
_0-8_
  6
CONTINUOUS
 62
    7
 10
423.1499859215628
 20
927.50000007148833
 11
423.1499859215628
 21
928.5000038524272
  0
LINE
  8
_0-8_
  6
CONTINUOUS
 62
    7
 10
422.49997811662467
 20
928.5000038524272
 11
423.1499859215628
 21
928.5000038524272
  0
LINE
  8
_0-8_
  6
CONTINUOUS
 62
    7
 10
421.49997433568581
 20
929.50000763336607
 11
421.49997433568581
 21
930.15000206998457
  0
LINE
  8
_0-8_
  6
CONTINUOUS
 62
    7
 10
421.49997433568581
 20
930.15000206998457
 11
420.49998392306657
 21
930.15000206998457
  0
LINE
  8
_0-8_
  6
CONTINUOUS
 62
    7
 10
420.49998392306657
 20
929.50000763336607
 11
420.49998392306657
 21
930.15000206998457
  0
LINE
  8
_0-8_
  6
CONTINUOUS
 62
    7
 10
419.4999801421277
 20
928.5000038524272
 11
418.8499857055092
 21
928.5000038524272
  0
LINE
  8
_0-8_
  6
CONTINUOUS
 62
    7
 10
418.8499857055092
 20
928.5000038524272
 11
418.8499857055092
 21
927.50000007148833
  0
LINE
  8
_0-8_
  6
CONTINUOUS
 62
    7
 10
419.4999801421277
 20
927.50000007148833
 11
418.8499857055092
 21
927.50000007148833
  0
LINE
  8
_0-8_
  6
CONTINUOUS
 62
    7
 10
420.49998392306657
 20
926.50000965886909
 11
420.49998392306657
 21
925.85000185393096
  0
LINE
  8
_0-8_
  6
CONTINUOUS
 62
    7
 10
420.49998392306657
 20
925.85000185393096
 11
421.49997433568581
 21
925.85000185393096
  0
LINE
  8
_0-8_
  6
CONTINUOUS
 62
    7
 10
421.49997433568581
 20
926.50000965886909
 11
421.49997433568581
 21
925.85000185393096
  0
ARC
  8
_0-8_
  6
CONTINUOUS
 62
    7
 10
422.49997811662467
 20
929.50000763336607
 40
1.0000000210989894
 50
180.00001525878906
 51
270
  0
ARC
  8
_0-8_
  6
CONTINUOUS
 62
    7
 10
422.49997811662467
 20
926.50000965886909
 40
1.0000000210989894
 50
89.999969482421875
 51
180.00001525878903
  0
ARC
  8
_0-8_
  6
CONTINUOUS
 62
    7
 10
419.4999801421277
 20
926.50000965886909
 40
1.0000000210989894
 50
0
 51
89.999969482421875
  0
ARC
  8
_0-8_
  6
CONTINUOUS
 62
    7
 10
419.4999801421277
 20
929.50000763336607
 40
1.0000000210989894
 50
270
 51
0
  0
CIRCLE
  8
_0-8_
  6
CONTINUOUS
 62
    7
 10
420.999985813536
 20
928.00000196195776
 40
4.0000000843959578
  0
LINE
  8
_0-8_
  6
CONTINUOUS
 62
    7
 10
532.50000512333099
 20
927.50000007148833
 11
533.15001292826912
 21
927.50000007148833
  0
LINE
  8
_0-8_
  6
CONTINUOUS
 62
    7
 10
533.15001292826912
 20
927.50000007148833
 11
533.15001292826912
 21
928.5000038524272
  0
LINE
  8
_0-8_
  6
CONTINUOUS
 62
    7
 10
532.50000512333099
 20
928.5000038524272
 11
533.15001292826912
 21
928.5000038524272
  0
LINE
  8
_0-8_
  6
CONTINUOUS
 62
    7
 10
531.50000134239212
 20
929.50000763336607
 11
531.50000134239212
 21
930.15000206998457
  0
LINE
  8
_0-8_
  6
CONTINUOUS
 62
    7
 10
531.50000134239212
 20
930.15000206998457
 11
530.50001092977288
 21
930.15000206998457
  0
LINE
  8
_0-8_
  6
CONTINUOUS
 62
    7
 10
530.50001092977288
 20
929.50000763336607
 11
530.50001092977288
 21
930.15000206998457
  0
LINE
  8
_0-8_
  6
CONTINUOUS
 62
    7
 10
529.50000714883402
 20
928.5000038524272
 11
528.85001271221552
 21
928.5000038524272
  0
LINE
  8
_0-8_
  6
CONTINUOUS
 62
    7
 10
528.85001271221552
 20
928.5000038524272
 11
528.85001271221552
 21
927.50000007148833
  0
LINE
  8
_0-8_
  6
CONTINUOUS
 62
    7
 10
529.50000714883402
 20
927.50000007148833
 11
528.85001271221552
 21
927.50000007148833
  0
LINE
  8
_0-8_
  6
CONTINUOUS
 62
    7
 10
530.50001092977288
 20
926.50000965886909
 11
530.50001092977288
 21
925.85000185393096
  0
LINE
  8
_0-8_
  6
CONTINUOUS
 62
    7
 10
530.50001092977288
 20
925.85000185393096
 11
531.50000134239212
 21
925.85000185393096
  0
LINE
  8
_0-8_
  6
CONTINUOUS
 62
    7
 10
531.50000134239212
 20
926.50000965886909
 11
531.50000134239212
 21
925.85000185393096
  0
ARC
  8
_0-8_
  6
CONTINUOUS
 62
    7
 10
532.50000512333099
 20
929.50000763336607
 40
1.0000000210989894
 50
180.00001525878906
 51
270
  0
ARC
  8
_0-8_
  6
CONTINUOUS
 62
    7
 10
532.50000512333099
 20
926.50000965886909
 40
1.0000000210989894
 50
89.999969482421875
 51
180.00001525878903
  0
ARC
  8
_0-8_
  6
CONTINUOUS
 62
    7
 10
529.50000714883402
 20
926.50000965886909
 40
1.0000000210989894
 50
0
 51
89.999969482421875
  0
ARC
  8
_0-8_
  6
CONTINUOUS
 62
    7
 10
529.50000714883402
 20
929.50000763336607
 40
1.0000000210989894
 50
270
 51
0
  0
CIRCLE
  8
_0-8_
  6
CONTINUOUS
 62
    7
 10
531.00001282024232
 20
928.00000196195776
 40
4.0000000843959578
  0
LINE
  8
_0-8_
  6
CONTINUOUS
 62
    7
 10
532.50000512333099
 20
862.49998926880573
 11
533.15001292826912
 21
862.49998926880573
  0
LINE
  8
_0-8_
  6
CONTINUOUS
 62
    7
 10
533.15001292826912
 20
862.49998926880573
 11
533.15001292826912
 21
863.4999930497446
  0
LINE
  8
_0-8_
  6
CONTINUOUS
 62
    7
 10
532.50000512333099
 20
863.4999930497446
 11
533.15001292826912
 21
863.4999930497446
  0
LINE
  8
_0-8_
  6
CONTINUOUS
 62
    7
 10
531.50000134239212
 20
864.49999683068359
 11
531.50000134239212
 21
865.14999126730208
  0
LINE
  8
_0-8_
  6
CONTINUOUS
 62
    7
 10
531.50000134239212
 20
865.14999126730208
 11
530.50001092977288
 21
865.14999126730208
  0
LINE
  8
_0-8_
  6
CONTINUOUS
 62
    7
 10
530.50001092977288
 20
864.49999683068359
 11
530.50001092977288
 21
865.14999126730208
  0
LINE
  8
_0-8_
  6
CONTINUOUS
 62
    7
 10
529.50000714883402
 20
863.4999930497446
 11
528.85001271221552
 21
863.4999930497446
  0
LINE
  8
_0-8_
  6
CONTINUOUS
 62
    7
 10
528.85001271221552
 20
863.4999930497446
 11
528.85001271221552
 21
862.49998926880573
  0
LINE
  8
_0-8_
  6
CONTINUOUS
 62
    7
 10
529.50000714883402
 20
862.49998926880573
 11
528.85001271221552
 21
862.49998926880573
  0
LINE
  8
_0-8_
  6
CONTINUOUS
 62
    7
 10
530.50001092977288
 20
861.49999885618649
 11
530.50001092977288
 21
860.84999105124837
  0
LINE
  8
_0-8_
  6
CONTINUOUS
 62
    7
 10
530.50001092977288
 20
860.84999105124837
 11
531.50000134239212
 21
860.84999105124837
  0
LINE
  8
_0-8_
  6
CONTINUOUS
 62
    7
 10
531.50000134239212
 20
861.49999885618649
 11
531.50000134239212
 21
860.84999105124837
  0
ARC
  8
_0-8_
  6
CONTINUOUS
 62
    7
 10
532.50000512333099
 20
864.49999683068359
 40
1.0000000210989894
 50
180.00001525878906
 51
270
  0
ARC
  8
_0-8_
  6
CONTINUOUS
 62
    7
 10
532.50000512333099
 20
861.49999885618649
 40
1.0000000210989894
 50
89.999969482421875
 51
180.00001525878903
  0
ARC
  8
_0-8_
  6
CONTINUOUS
 62
    7
 10
529.50000714883402
 20
861.49999885618649
 40
1.0000000210989894
 50
0
 51
89.999969482421875
  0
ARC
  8
_0-8_
  6
CONTINUOUS
 62
    7
 10
529.50000714883402
 20
864.49999683068359
 40
1.0000000210989894
 50
270
 51
0
  0
CIRCLE
  8
_0-8_
  6
CONTINUOUS
 62
    7
 10
531.00001282024232
 20
862.99999115927517
 40
4.0000000843959578
  0
LINE
  8
_0-8_
  6
CONTINUOUS
 62
    7
 10
422.49997811662467
 20
862.49998926880573
 11
423.1499859215628
 21
862.49998926880573
  0
LINE
  8
_0-8_
  6
CONTINUOUS
 62
    7
 10
423.1499859215628
 20
862.49998926880573
 11
423.1499859215628
 21
863.4999930497446
  0
LINE
  8
_0-8_
  6
CONTINUOUS
 62
    7
 10
422.49997811662467
 20
863.4999930497446
 11
423.1499859215628
 21
863.4999930497446
  0
LINE
  8
_0-8_
  6
CONTINUOUS
 62
    7
 10
421.49997433568581
 20
864.49999683068359
 11
421.49997433568581
 21
865.14999126730208
  0
LINE
  8
_0-8_
  6
CONTINUOUS
 62
    7
 10
421.49997433568581
 20
865.14999126730208
 11
420.49998392306657
 21
865.14999126730208
  0
LINE
  8
_0-8_
  6
CONTINUOUS
 62
    7
 10
420.49998392306657
 20
864.49999683068359
 11
420.49998392306657
 21
865.14999126730208
  0
LINE
  8
_0-8_
  6
CONTINUOUS
 62
    7
 10
419.4999801421277
 20
863.4999930497446
 11
418.8499857055092
 21
863.4999930497446
  0
LINE
  8
_0-8_
  6
CONTINUOUS
 62
    7
 10
418.8499857055092
 20
863.4999930497446
 11
418.8499857055092
 21
862.49998926880573
  0
LINE
  8
_0-8_
  6
CONTINUOUS
 62
    7
 10
419.4999801421277
 20
862.49998926880573
 11
418.8499857055092
 21
862.49998926880573
  0
LINE
  8
_0-8_
  6
CONTINUOUS
 62
    7
 10
420.49998392306657
 20
861.49999885618649
 11
420.49998392306657
 21
860.84999105124837
  0
LINE
  8
_0-8_
  6
CONTINUOUS
 62
    7
 10
420.49998392306657
 20
860.84999105124837
 11
421.49997433568581
 21
860.84999105124837
  0
LINE
  8
_0-8_
  6
CONTINUOUS
 62
    7
 10
421.49997433568581
 20
861.49999885618649
 11
421.49997433568581
 21
860.84999105124837
  0
ARC
  8
_0-8_
  6
CONTINUOUS
 62
    7
 10
422.49997811662467
 20
864.49999683068359
 40
1.0000000210989894
 50
180.00001525878906
 51
270
  0
ARC
  8
_0-8_
  6
CONTINUOUS
 62
    7
 10
422.49997811662467
 20
861.49999885618649
 40
1.0000000210989894
 50
89.999969482421875
 51
180.00001525878903
  0
ARC
  8
_0-8_
  6
CONTINUOUS
 62
    7
 10
419.4999801421277
 20
861.49999885618649
 40
1.0000000210989894
 50
0
 51
89.999969482421875
  0
ARC
  8
_0-8_
  6
CONTINUOUS
 62
    7
 10
419.4999801421277
 20
864.49999683068359
 40
1.0000000210989894
 50
270
 51
0
  0
CIRCLE
  8
_0-8_
  6
CONTINUOUS
 62
    7
 10
420.999985813536
 20
862.99999115927517
 40
4.0000000843959578
  0
LINE
  8
_0-4_
  6
DASHED2
 62
    4
 10
510.49998514631147
 20
939.99998487624441
 11
441.49998514631153
 21
939.99998487624441
  0
ARC
  8
_0-4_
  6
DASHED2
 62
    4
 10
441.49998514631153
 20
939.49998487624441
 40
0.5
 50
90
 51
180
  0
LINE
  8
_0-4_
  6
DASHED2
 62
    4
 10
440.99998514631147
 20
939.49998487624441
 11
440.99998514631147
 21
936.49998487624441
  0
ARC
  8
_0-4_
  6
DASHED2
 62
    4
 10
441.49998514631153
 20
936.49998487624441
 40
0.5
 50
180
 51
270
  0
LINE
  8
_0-4_
  6
DASHED2
 62
    4
 10
450.99998514631153
 20
935.99998487624441
 11
441.49998514631153
 21
935.99998487624441
  0
LINE
  8
_0-4_
  6
DASHED2
 62
    4
 10
450.99998514631153
 20
935.99998487624441
 11
450.99998514631153
 21
922.99998487624441
  0
LINE
  8
_0-4_
  6
DASHED2
 62
    4
 10
468.99998514631153
 20
922.99998487624441
 11
450.99998514631153
 21
922.99998487624441
  0
LINE
  8
_0-4_
  6
DASHED2
 62
    4
 10
468.99998514631153
 20
935.99998487624441
 11
468.99998514631153
 21
922.99998487624441
  0
LINE
  8
_0-4_
  6
DASHED2
 62
    4
 10
482.99998514631147
 20
935.99998487624441
 11
468.99998514631153
 21
935.99998487624441
  0
LINE
  8
_0-4_
  6
DASHED2
 62
    4
 10
482.99998514631147
 20
922.99998487624441
 11
482.99998514631147
 21
935.99998487624441
  0
LINE
  8
_0-4_
  6
DASHED2
 62
    4
 10
500.99998514631147
 20
922.99998487624441
 11
482.99998514631147
 21
922.99998487624441
  0
LINE
  8
_0-4_
  6
DASHED2
 62
    4
 10
500.99998514631147
 20
922.99998487624441
 11
500.99998514631147
 21
935.99998487624441
  0
LINE
  8
_0-4_
  6
DASHED2
 62
    4
 10
510.49998514631147
 20
935.99998487624441
 11
500.99998514631147
 21
935.99998487624441
  0
ARC
  8
_0-4_
  6
DASHED2
 62
    4
 10
510.49998514631147
 20
936.49998487624441
 40
0.5
 50
270
 51
0
  0
LINE
  8
_0-4_
  6
DASHED2
 62
    4
 10
510.99998514631147
 20
936.49998487624441
 11
510.99998514631147
 21
939.49998487624441
  0
ARC
  8
_0-4_
  6
DASHED2
 62
    4
 10
510.49998514631147
 20
939.49998487624441
 40
0.5
 50
0
 51
90
  0
ARC
  8
_0-4_
  6
DASHED2
 62
    4
 10
467.99998514631153
 20
929.49998487624441
 40
3.4999999999999996
 50
286.60154999999997
 51
328.99728086612595
  0
ARC
  8
_0-4_
  6
DASHED2
 62
    4
 10
467.99998514631153
 20
929.49998487624441
 40
3.4999999999999996
 50
31.002719133874031
 51
73.398450000000011
  0
ARC
  8
_0-4_
  6
DASHED2
 62
    4
 10
483.99998514631147
 20
929.49998487624441
 40
3.4999999999999996
 50
106.60155
 51
148.99728086612598
  0
ARC
  8
_0-4_
  6
DASHED2
 62
    4
 10
483.99998514631147
 20
929.49998487624441
 40
3.4999999999999996
 50
211.00271913387405
 51
253.39845
  0
LINE
  8
_0-4_
  6
DASHED2
 62
    4
 10
468.99998514631153
 20
924.49998487624441
 11
482.99998514631147
 21
924.49998487624441
  0
LINE
  8
_0-4_
  6
DASHED2
 62
    4
 10
480.99998514631147
 20
934.49998487624441
 11
480.99998514631147
 21
924.49998487624441
  0
LINE
  8
_0-4_
  6
DASHED2
 62
    4
 10
468.99998514631153
 20
934.49998487624441
 11
482.99998514631147
 21
934.49998487624441
  0
LINE
  8
_0-4_
  6
DASHED2
 62
    4
 10
470.99998514631153
 20
934.49998487624441
 11
470.99998514631153
 21
924.49998487624441
  0
CIRCLE
  8
_0-4_
  6
DASHED2
 62
    4
 10
490.99998514631147
 20
929.49998487624441
 40
4
  0
CIRCLE
  8
_0-4_
  6
DASHED2
 62
    4
 10
460.99998514631153
 20
929.49998487624441
 40
4
  0
LINE
  8
_0-4_
  6
DASHED2
 62
    4
 10
468.99998514631153
 20
934.49998487624441
 11
454.99998514631153
 21
934.49998487624441
  0
LINE
  8
_0-4_
  6
DASHED2
 62
    4
 10
454.99998514631153
 20
924.49998487624441
 11
454.99998514631153
 21
934.49998487624441
  0
LINE
  8
_0-4_
  6
DASHED2
 62
    4
 10
468.99998514631153
 20
924.49998487624441
 11
454.99998514631153
 21
924.49998487624441
  0
LINE
  8
_0-4_
  6
DASHED2
 62
    4
 10
482.99998514631147
 20
924.49998487624441
 11
496.99998514631147
 21
924.49998487624441
  0
LINE
  8
_0-4_
  6
DASHED2
 62
    4
 10
496.99998514631147
 20
924.49998487624441
 11
496.99998514631147
 21
934.49998487624441
  0
LINE
  8
_0-4_
  6
DASHED2
 62
    4
 10
482.99998514631147
 20
934.49998487624441
 11
496.99998514631147
 21
934.49998487624441
  0
CIRCLE
  8
_0-4_
  6
DASHED2
 62
    4
 10
490.99998514631147
 20
929.49998487624441
 40
2
  0
CIRCLE
  8
_0-4_
  6
DASHED2
 62
    4
 10
460.99998514631153
 20
929.49998487624441
 40
2
  0
CIRCLE
  8
_0-0_
  6
CONTINUOUS
 62
    7
 10
815.99997030000009
 20
895.09399996916147
 40
12
  0
TEXT
  8
_0-0_
 62
    7
 10
805.99997030000009
 20
885.09399996916147
 40
20
 41
1
 50
0
  1
１
  0
CIRCLE
  8
_0-0_
  6
CONTINUOUS
 62
    7
 10
815.99997030000009
 20
643.82598897154503
 40
12
  0
TEXT
  8
_0-0_
 62
    7
 10
805.99997030000009
 20
633.82598897154492
 40
20
 41
1
 50
0
  1
７
  0
CIRCLE
  8
_0-0_
  6
CONTINUOUS
 62
    7
 10
815.99997030000009
 20
823.96150262596029
 40
12
  0
TEXT
  8
_0-0_
 62
    7
 10
805.99997030000009
 20
813.96150262596029
 40
20
 41
1
 50
0
  1
２
  0
LINE
  8
_0-0_
  6
CONTINUOUS
 62
    7
 10
775.99997029262295
 20
871.99998919731752
 11
805.60766545458671
 21
889.09399996916159
  0
LINE
  8
_0-0_
  6
CONTINUOUS
 62
    7
 10
775.99997029262295
 20
871.99998919731752
 11
784.48525166686147
 21
880.48527057155604
  0
LINE
  8
_0-0_
  6
CONTINUOUS
 62
    7
 10
775.99997029262295
 20
871.99998919731752
 11
787.59108020809174
 21
875.10581773854778
  0
LINE
  8
_0-0_
  6
CONTINUOUS
 62
    7
 10
725.99997029262295
 20
771.99997839463492
 11
805.60766545458682
 21
817.96150262596029
  0
POINT
  8
_0-0_
 62
    2
 10
725.99997029262295
 20
771.99997839463492
  0
LINE
  8
_0-0_
  6
CONTINUOUS
 62
    7
 10
773.00002214549909
 20
618.99995732940397
 11
805.60766545458682
 21
637.82598897154514
  0
LINE
  8
_0-0_
  6
CONTINUOUS
 62
    7
 10
773.00002214549909
 20
618.99995732940397
 11
781.48530351973761
 21
627.48523870364261
  0
LINE
  8
_0-0_
  6
CONTINUOUS
 62
    7
 10
773.00002214549909
 20
618.99995732940397
 11
784.59113206096788
 21
622.10578587063424
  0
LINE
  8
_0-0_
  6
CONTINUOUS
 62
    7
 10
525.99998582147919
 20
937.99998271570792
 11
534.48526719571771
 21
946.48526408994644
  0
LINE
  8
_0-0_
  6
CONTINUOUS
 62
    7
 10
525.99998582147919
 20
937.99998271570792
 11
562.72391572060224
 21
1001.6076951545867
  0
LINE
  8
_0-0_
  6
CONTINUOUS
 62
    7
 10
525.99998582147919
 20
937.99998271570792
 11
529.10581436270945
 21
949.59109263117671
  0
CIRCLE
  8
_0-0_
  6
CONTINUOUS
 62
    7
 10
568.72391572060224
 20
1012
 40
12
  0
TEXT
  8
_0-0_
 62
    7
 10
558.72391572060224
 20
1002
 40
20
 41
1
 50
0
  1
３
  0
CIRCLE
  8
_0-0_
  6
CONTINUOUS
 62
    7
 10
592.72391572060224
 20
1012
 40
12
  0
TEXT
  8
_0-0_
 62
    7
 10
582.72391572060224
 20
1002
 40
20
 41
1
 50
0
  1
８
  0
TEXT
  8
_0-0_
 62
    7
 10
605.31993318476998
 20
1001.5872436676532
 40
14
 41
1
 50
0
  1
x4
  0
LINE
  8
_0-0_
  6
CONTINUOUS
 62
    7
 10
475.99998514631147
 20
939.99998487624441
 11
472.89415660508121
 21
951.5910947917132
  0
LINE
  8
_0-0_
  6
CONTINUOUS
 62
    7
 10
475.99998514631147
 20
939.99998487624441
 11
440.43075703295403
 21
1001.6076951545867
  0
LINE
  8
_0-0_
  6
CONTINUOUS
 62
    7
 10
475.99998514631147
 20
939.99998487624441
 11
467.51470377207289
 21
948.48526625048294
  0
CIRCLE
  8
_0-0_
  6
CONTINUOUS
 62
    7
 10
434.43075703295409
 20
1012
 40
12
  0
TEXT
  8
_0-0_
 62
    7
 10
424.43075703295409
 20
1002
 40
20
 41
1
 50
0
  1
４
  0
CIRCLE
  8
_0-0_
  6
CONTINUOUS
 62
    7
 10
458.43075703295409
 20
1012
 40
12
  0
TEXT
  8
_0-0_
 62
    7
 10
448.43075703295409
 20
1002
 40
20
 41
1
 50
0
  1
８
  0
TEXT
  8
_0-0_
 62
    7
 10
470.46491942320836
 20
1001.8624260051836
 40
14
 41
1
 50
0
  1
x4
  0
LINE
  8
_0-0_
  6
CONTINUOUS
 62
    7
 10
322.99999716429579
 20
899.69613105122653
 11
314.51471579005727
 21
908.18141242546517
  0
LINE
  8
_0-0_
  6
CONTINUOUS
 62
    7
 10
322.9999859085832
 20
899.69612455273796
 11
264.16131318806811
 21
1001.6076951545867
  0
LINE
  8
_0-0_
  6
CONTINUOUS
 62
    7
 10
322.99999716429579
 20
899.69613105122653
 11
319.89416862306553
 21
911.28724096669544
  0
CIRCLE
  8
_0-0_
  6
CONTINUOUS
 62
    7
 10
258.16131318806822
 20
1012
 40
12
  0
CIRCLE
  8
_0-0_
  6
CONTINUOUS
 62
    7
 10
282.16131318806822
 20
1012
 40
12
  0
TEXT
  8
_0-0_
 62
    7
 10
248.16131318806822
 20
1002
 40
20
 41
1
 50
0
  1
５
  0
TEXT
  8
_0-0_
 62
    7
 10
272.16131318806822
 20
1002
 40
20
 41
1
 50
0
  1
６
  0
POINT
  8
_0-f_
 62
    9
 10
1560
 20
360
  0
POINT
  8
_0-f_
 62
    9
 10
1560
 20
384
  0
POINT
  8
_0-f_
 62
    9
 10
1560
 20
336
  0
POINT
  8
_0-f_
 62
    9
 10
1560
 20
312
  0
POINT
  8
_0-f_
 62
    9
 10
1560
 20
288
  0
POINT
  8
_0-f_
 62
    9
 10
1560
 20
264
  0
POINT
  8
_0-f_
 62
    9
 10
1560
 20
240
  0
POINT
  8
_0-f_
 62
    9
 10
1560
 20
216
  0
POINT
  8
_0-f_
 62
    9
 10
1560
 20
408
  0
TEXT
  8
_0-f_
 62
    7
 10
1544
 20
408
 40
16
 41
1
 50
0
  1
備考
  0
POINT
  8
_0-f_
 62
    9
 10
1472
 20
408
  0
POINT
  8
_0-f_
 62
    9
 10
1472
 20
384
  0
POINT
  8
_0-f_
 62
    9
 10
1472
 20
360
  0
POINT
  8
_0-f_
 62
    9
 10
1472
 20
336
  0
POINT
  8
_0-f_
 62
    9
 10
1472
 20
312
  0
POINT
  8
_0-f_
 62
    9
 10
1472
 20
288
  0
POINT
  8
_0-f_
 62
    9
 10
1472
 20
264
  0
POINT
  8
_0-f_
 62
    9
 10
1472
 20
240
  0
POINT
  8
_0-f_
 62
    9
 10
1472
 20
216
  0
POINT
  8
_0-f_
 62
    9
 10
1304
 20
408
  0
POINT
  8
_0-f_
 62
    9
 10
1304
 20
384
  0
POINT
  8
_0-f_
 62
    9
 10
1304
 20
360
  0
POINT
  8
_0-f_
 62
    9
 10
1384
 20
408
  0
POINT
  8
_0-f_
 62
    9
 10
1384
 20
384
  0
POINT
  8
_0-f_
 62
    9
 10
1384
 20
360
  0
POINT
  8
_0-f_
 62
    9
 10
1304
 20
336
  0
POINT
  8
_0-f_
 62
    9
 10
1384
 20
336
  0
POINT
  8
_0-f_
 62
    9
 10
1304
 20
312
  0
POINT
  8
_0-f_
 62
    9
 10
1384
 20
312
  0
POINT
  8
_0-f_
 62
    9
 10
1304
 20
288
  0
POINT
  8
_0-f_
 62
    9
 10
1384
 20
288
  0
POINT
  8
_0-f_
 62
    9
 10
1304
 20
264
  0
POINT
  8
_0-f_
 62
    9
 10
1384
 20
264
  0
POINT
  8
_0-f_
 62
    9
 10
1304
 20
240
  0
POINT
  8
_0-f_
 62
    9
 10
1384
 20
240
  0
POINT
  8
_0-f_
 62
    9
 10
1304
 20
216
  0
POINT
  8
_0-f_
 62
    9
 10
1384
 20
216
  0
TEXT
  8
_0-f_
 62
    7
 10
1288
 20
408
 40
16
 41
1
 50
0
  1
番号
  0
TEXT
  8
_0-f_
 62
    7
 10
1344
 20
408
 40
16
 41
1
 50
0
  1
部　材　名
  0
TEXT
  8
_0-f_
 62
    7
 10
1296
 20
384
 40
16
 41
1
 50
0
  1
１
  0
TEXT
  8
_0-f_
 62
    7
 10
1296
 20
360
 40
16
 41
1
 50
0
  1
２
  0
TEXT
  8
_0-f_
 62
    7
 10
1296
 20
336
 40
16
 41
1
 50
0
  1
３
  0
TEXT
  8
_0-f_
 62
    7
 10
1296
 20
312
 40
16
 41
1
 50
0
  1
４
  0
TEXT
  8
_0-f_
 62
    7
 10
1296
 20
288
 40
16
 41
1
 50
0
  1
５
  0
TEXT
  8
_0-f_
 62
    7
 10
1296
 20
264
 40
16
 41
1
 50
0
  1
６
  0
TEXT
  8
_0-f_
 62
    7
 10
1296
 20
240
 40
16
 41
1
 50
0
  1
７
  0
TEXT
  8
_0-f_
 62
    7
 10
1296
 20
216
 40
16
 41
1
 50
0
  1
８
  0
TEXT
  8
_0-f_
 62
    7
 10
1368
 20
384
 40
16
 41
1
 50
0
  1
本体
  0
TEXT
  8
_0-f_
 62
    7
 10
1376
 20
360
 40
16
 41
1
 50
0
  1
扉
  0
TEXT
  8
_0-f_
 62
    7
 10
1352
 20
336
 40
16
 41
1
 50
0
  1
埋込取手
  0
TEXT
  8
_0-f_
 62
    7
 10
1328
 20
312
 40
16
 41
1
 50
0
  1
ボールキャッチ
  0
TEXT
  8
_0-f_
 62
    7
 10
1360
 20
288
 40
16
 41
1
 50
0
  1
クサリ
  0
TEXT
  8
_0-f_
 62
    7
 10
1328
 20
264
 40
16
 41
1
 50
0
  1
クサリ止め金具
  0
TEXT
  8
_0-f_
 62
    7
 10
1344
 20
240
 40
16
 41
1
 50
0
  1
丸リベット
  0
TEXT
  8
_0-f_
 62
    7
 10
1328
 20
216
 40
16
 41
1
 50
0
  1
皿ビス・ナット
  0
LINE
  8
_0-f_
  6
CONTINUOUS
 62
    7
 10
1284
 20
428
 11
1620
 21
428
  0
LINE
  8
_0-f_
  6
CONTINUOUS
 62
    7
 10
1284
 20
404
 11
1620
 21
404
  0
LINE
  8
_0-f_
  6
CONTINUOUS
 62
    7
 10
1284
 20
380
 11
1620
 21
380
  0
LINE
  8
_0-f_
  6
CONTINUOUS
 62
    7
 10
1284
 20
356
 11
1620
 21
356
  0
LINE
  8
_0-f_
  6
CONTINUOUS
 62
    7
 10
1284
 20
332
 11
1620
 21
332
  0
LINE
  8
_0-f_
  6
CONTINUOUS
 62
    7
 10
1284
 20
308
 11
1620
 21
308
  0
LINE
  8
_0-f_
  6
CONTINUOUS
 62
    7
 10
1284
 20
284
 11
1620
 21
284
  0
LINE
  8
_0-f_
  6
CONTINUOUS
 62
    7
 10
1284
 20
260
 11
1620
 21
260
  0
LINE
  8
_0-f_
  6
CONTINUOUS
 62
    7
 10
1284
 20
236
 11
1620
 21
236
  0
TEXT
  8
_0-f_
 62
    7
 10
1456
 20
408
 40
16
 41
1
 50
0
  1
材質
  0
TEXT
  8
_0-f_
 62
    7
 10
1448
 20
336
 40
16
 41
1
 50
0
  1
SUS304
  0
TEXT
  8
_0-f_
 62
    7
 10
1460
 20
312
 40
16
 41
1
 50
0
  1
ZDC
  0
TEXT
  8
_0-f_
 62
    7
 10
1448
 20
288
 40
16
 41
1
 50
0
  1
SUS304
  0
TEXT
  8
_0-f_
 62
    7
 10
1452
 20
264
 40
16
 41
1
 50
0
  1
SS400
  0
TEXT
  8
_0-f_
 62
    7
 10
1448
 20
240
 40
16
 41
1
 50
0
  1
SUS304
  0
TEXT
  8
_0-f_
 62
    7
 10
1448
 20
216
 40
16
 41
1
 50
0
  1
SUS304
  0
TEXT
  8
_0-f_
 62
    7
 10
1548
 20
288
 40
16
 41
1
 50
0
  1
φ3
  0
TEXT
  8
_0-f_
 62
    7
 10
1504
 20
264
 40
16
 41
1
 50
0
  1
ユニクロメッキ
  0
TEXT
  8
_0-f_
 62
    7
 10
1548
 20
240
 40
16
 41
1
 50
0
  1
φ6
  0
TEXT
  8
_0-f_
 62
    7
 10
1548
 20
216
 40
16
 41
1
 50
0
  1
Ｍ4
  0
TEXT
  8
_0-f_
 62
    7
 10
1376
 20
548
 40
16
 41
1
 50
0
  1
　　　別途加工できます
  0
TEXT
  8
_0-f_
 62
    7
 10
1376
 20
568
 40
16
 41
1
 50
0
  1
※１）取付穴・配管用穴は、
  0
TEXT
  8
_0-f_
 62
    7
 10
1376
 20
608
 40
16
 41
1
 50
0
  1
　４）裏板付
  0
TEXT
  8
_0-f_
 62
    7
 10
1376
 20
628
 40
16
 41
1
 50
0
  1
　３）扉 取外し可能
  0
TEXT
  8
_0-f_
 62
    7
 10
1376
 20
648
 40
16
 41
1
 50
0
  1
　２）保温マット付
  0
POINT
  8
_0-f_
 62
    9
 10
1376
 20
668
  0
POINT
  8
_0-f_
 62
    9
 10
1376
 20
648
  0
POINT
  8
_0-f_
 62
    9
 10
1376
 20
628
  0
POINT
  8
_0-f_
 62
    9
 10
1376
 20
608
  0
POINT
  8
_0-f_
 62
    9
 10
1376
 20
568
  0
POINT
  8
_0-f_
 62
    9
 10
1376
 20
548
  0
TEXT
  8
_0-f_
 62
    7
 10
1376
 20
668
 40
16
 41
1
 50
0
  1
注１）ヘアーライン仕上げ
  0
TEXT
  8
_0-f_
 62
    7
 10
1448
 20
360
 40
16
 41
1
 50
0
  1
SUS304
  0
TEXT
  8
_0-f_
 62
    7
 10
1448
 20
384
 40
16
 41
1
 50
0
  1
SUS304
  0
TEXT
  8
_0-f_
 62
    7
 10
1532
 20
384
 40
16
 41
1
 50
0
  1
t1.5-HL
  0
TEXT
  8
_0-f_
 62
    7
 10
1532
 20
360
 40
16
 41
1
 50
0
  1
t1.5-HL
  0
LINE
  8
_0-f_
  6
CONTINUOUS
 62
    7
 10
1284
 20
212
 11
1284
 21
428
  0
LINE
  8
_0-f_
  6
CONTINUOUS
 62
    7
 10
1324
 20
212
 11
1324
 21
428
  0
LINE
  8
_0-f_
  6
CONTINUOUS
 62
    7
 10
1444
 20
212
 11
1444
 21
428
  0
LINE
  8
_0-f_
  6
CONTINUOUS
 62
    7
 10
1500
 20
212
 11
1500
 21
428
  0
LINE
  8
_0-f_
  6
CONTINUOUS
 62
    7
 10
1284
 20
212
 11
1620
 21
212
  0
LINE
  8
_0-f_
  6
CONTINUOUS
 62
    7
 10
1620
 20
212
 11
1620
 21
428
  0
TEXT
  8
_0-f_
 62
    7
 10
1142
 20
78
 40
14
 41
1
 50
0
  1
2005.10.22.-8-2
  0
TEXT
  8
_0-f_
 62
    7
 10
1552
 20
114
 40
14
 41
1
 50
0
  1
FREE
  0
TEXT
  8
_0-f_
 62
    7
 10
1276
 20
78
 40
18
 41
0.8888888888888888
 50
0
  1
ステンレス製メーターボックス（壁用・埋込型）
  0
TEXT
  8
_0-f_
 62
    7
 10
1276
 20
42
 40
18
 41
1
 50
0
  1
ＳＢ７０－２
  0
ENDSEC
  0
EOF
