  0
SECTION
  2
HEADER
  9
$ACADVER
  1
AC1009
  9
$INSBASE
 10
0
 20
0
 30
0
  9
$EXTMIN
 10
0
 20
0
  9
$EXTMAX
 10
1260
 20
891
  9
$LIMMIN
 10
0
 20
0
  9
$LIMMAX
 10
1260
 20
891
  9
$LTSCALE
 40
3
  0
ENDSEC
  0
SECTION
  2
TABLES
  0
TABLE
  2
LTYPE
 70
     9
  0
LTYPE
  2
CONTINUOUS
 70
    64
  3
実線
 72
    65
 73
     0
 40
0.0
  0
LTYPE
  2
DASHED1
 70
    64
  3
--  --  --  --  --  --  --  --  
 72
    65
 73
     2
 40
2.5
 49
1.25
 49
-1.25
  0
LTYPE
  2
DASHED2
 70
    64
  3
----    ----    ----    ----    
 72
    65
 73
     2
 40
5.0
 49
2.5
 49
-2.5
  0
LTYPE
  2
DASHED3
 70
    64
  3
------  ------  ------  ------  
 72
    65
 73
     2
 40
5.0
 49
3.75
 49
-1.25
  0
LTYPE
  2
CENTER1
 70
    64
  3
----- - ----- - ----- - ----- - 
 72
    65
 73
     4
 40
10.0
 49
6.25
 49
-1.25
 49
1.25
 49
-1.25
  0
LTYPE
  2
CENTER2
 70
    64
  3
----------  --  ----------  --  
 72
    65
 73
     4
 40
20.0
 49
12.5
 49
-2.5
 49
2.5
 49
-2.5
  0
LTYPE
  2
PHANTOM1
 70
    64
  3
--- - - --- - - --- - - --- - - 
 72
    65
 73
     6
 40
10.0
 49
3.25
 49
-1.25
 49
1.25
 49
-1.25
 49
1.25
 49
-1.25
  0
LTYPE
  2
PHANTOM2
 70
    64
  3
--------  -  -  --------  -  -  
 72
    65
 73
     6
 40
20.0
 49
10.0
 49
-2.5
 49
1.25
 49
-2.5
 49
1.25
 49
-2.5
  0
LTYPE
  2
DOT
 70
    64
  3
-   -   -   -   -   -   -   -   
 72
    65
 73
     2
 40
2.5
 49
0.625
 49
-1.875
  0
LTYPE
  2
DUMMY
 70
    64
  3
ダミー
 72
    65
 73
     0
 40
0.0
  0
LTYPE
  2
RAND1
 70
    64
  3
ランダム線1
 72
    65
 73
     4
 40
10.0
 49
1.0
 49
-2.0
 49
3.0
 49
-4.0
  0
LTYPE
  2
RAND2
 70
    64
  3
ランダム線2
 72
    65
 73
     4
 40
14.0
 49
2.0
 49
-3.0
 49
4.0
 49
-5.0
  0
LTYPE
  2
RAND3
 70
    64
  3
ランダム線3
 72
    65
 73
     4
 40
18.0
 49
3.0
 49
-4.0
 49
5.0
 49
-6.0
  0
LTYPE
  2
RAND4
 70
    64
  3
ランダム線4
 72
    65
 73
     4
 40
22.0
 49
4.0
 49
-5.0
 49
6.0
 49
-7.0
  0
LTYPE
  2
RAND5
 70
    64
  3
ランダム線5
 72
    65
 73
     4
 40
26.0
 49
5.0
 49
-6.0
 49
7.0
 49
-8.0
  0
LTYPE
  2
LONG1
 70
    64
  3
----------  --  ----------  --  
 72
    65
 73
     4
 40
40.0
 49
32.5
 49
-2.5
 49
2.5
 49
-2.5
  0
LTYPE
  2
LONG2
 70
    64
  3
--------  -  -  --------  -  -  
 72
    65
 73
     6
 40
40.0
 49
30.0
 49
-2.5
 49
1.25
 49
-2.5
 49
1.25
 49
-2.5
  0
LTYPE
  2
LONG3
 70
    64
  3
+++++++++++++++..+++++++++++++++
 72
    65
 73
     2
 40
40.0
 49
37.5
 49
-2.5
  0
LTYPE
  2
LONG4
 70
    64
  3
+++++++++++++++..+++++++++++++++
 72
    65
 73
     2
 40
80.0
 49
75.0
 49
-5.0
  0
LTYPE
  2
LONG5
 70
    64
  3
----------  --  ----------  --  
 72
    65
 73
     4
 40
60.0
 49
37.5
 49
-7.5
 49
7.5
 49
-7.5
  0
LTYPE
  2
dashed
 70
   64
  3
-------   -------------   ------
 72
   65
 73
    2
 40
7.5
 49
6
 49
-1.5
  0
LTYPE
  2
dashed_spaced
 70
   64
  3
----        --------        ----
 72
   65
 73
    2
 40
12
 49
6
 49
-6
  0
LTYPE
  2
long_dashed_dotted
 70
   64
  3
------------- --- --------------
 72
   65
 73
    4
 40
15.25
 49
12
 49
-1.5
 49
0.25
 49
-1.5
  0
LTYPE
  2
long_dashed_double-dotted
 70
   64
  3
----------- --- --- ------------
 72
   65
 73
    6
 40
17
 49
12
 49
-1.5
 49
0.25
 49
-1.5
 49
0.25
 49
-1.5
  0
LTYPE
  2
long_dashed_triplicate-dotted
 70
   64
  3
--------- --- --- --- ----------
 72
   65
 73
    8
 40
18.75
 49
12
 49
-1.5
 49
0.25
 49
-1.5
 49
0.25
 49
-1.5
 49
0.25
 49
-1.5
  0
LTYPE
  2
dotted
 70
   64
  3
   -       -       -       -    
 72
   65
 73
    2
 40
1.75
 49
0.25
 49
-1.5
  0
LTYPE
  2
chain
 70
   64
  3
-------------- -- --------------
 72
   65
 73
    4
 40
18.5
 49
12
 49
-1.5
 49
3.5
 49
-1.5
  0
LTYPE
  2
chain_double_dash
 70
   64
  3
------------ -- -- -------------
 72
   65
 73
    6
 40
23.5
 49
12
 49
-1.5
 49
3.5
 49
-1.5
 49
3.5
 49
-1.5
  0
LTYPE
  2
dashed_dotted
 70
   64
  3
-----------     -     ----------
 72
   65
 73
    4
 40
9.25
 49
6
 49
-1.5
 49
0.25
 49
-1.5
  0
LTYPE
  2
double-dashed_dotted
 70
   64
  3
------   -----------   -   -----
 72
   65
 73
    6
 40
16.75
 49
6
 49
-1.5
 49
6
 49
-1.5
 49
0.25
 49
-1.5
  0
LTYPE
  2
dashed_double-dotted
 70
   64
  3
---------    -    -    ---------
 72
   65
 73
    6
 40
11
 49
6
 49
-1.5
 49
0.25
 49
-1.5
 49
0.25
 49
-1.5
  0
LTYPE
  2
double-dashed_double-dotted
 70
   64
  3
-----   ---------   -   -   ----
 72
   65
 73
    8
 40
18.5
 49
6
 49
-1.5
 49
6
 49
-1.5
 49
0.25
 49
-1.5
 49
0.25
 49
-1.5
  0
LTYPE
  2
dashed_triplicate-dotted
 70
   64
  3
-------    -    -    -    ------
 72
   65
 73
    8
 40
12.75
 49
6
 49
-1.5
 49
0.25
 49
-1.5
 49
0.25
 49
-1.5
 49
0.25
 49
-1.5
  0
LTYPE
  2
double-dashed_triplicate-dotted
 70
   64
  3
-----  ---------  -  -  -  -----
 72
   65
 73
   10
 40
20.25
 49
6
 49
-1.5
 49
6
 49
-1.5
 49
0.25
 49
-1.5
 49
0.25
 49
-1.5
 49
0.25
 49
-1.5
  0
LTYPE
  2
undefined
 70
   64
  3
--------------------------------
 72
   65
 73
    0
 40
0
  0
LTYPE
  2
_
 70
   64
  3
                                
 72
   65
 73
    0
 40
0
  0
LTYPE
  2
__18
 70
   64
  3
                                
 72
   65
 73
    0
 40
0
  0
LTYPE
  2
__19
 70
   64
  3
                                
 72
   65
 73
    0
 40
0
  0
LTYPE
  2
__20
 70
   64
  3
                                
 72
   65
 73
    0
 40
0
  0
LTYPE
  2
__21
 70
   64
  3
                                
 72
   65
 73
    0
 40
0
  0
LTYPE
  2
__22
 70
   64
  3
                                
 72
   65
 73
    0
 40
0
  0
LTYPE
  2
__23
 70
   64
  3
                                
 72
   65
 73
    0
 40
0
  0
LTYPE
  2
__24
 70
   64
  3
                                
 72
   65
 73
    0
 40
0
  0
LTYPE
  2
__25
 70
   64
  3
                                
 72
   65
 73
    0
 40
0
  0
LTYPE
  2
__26
 70
   64
  3
                                
 72
   65
 73
    0
 40
0
  0
LTYPE
  2
__27
 70
   64
  3
                                
 72
   65
 73
    0
 40
0
  0
LTYPE
  2
__28
 70
   64
  3
                                
 72
   65
 73
    0
 40
0
  0
LTYPE
  2
__29
 70
   64
  3
                                
 72
   65
 73
    0
 40
0
  0
LTYPE
  2
__30
 70
   64
  3
                                
 72
   65
 73
    0
 40
0
  0
LTYPE
  2
__31
 70
   64
  3
                                
 72
   65
 73
    0
 40
0
  0
LTYPE
  2
__32
 70
   64
  3
                                
 72
   65
 73
    0
 40
0
  0
ENDTAB
  0
TABLE
  2
STYLE
  5
3
100
AcDbSymbolTable
 70
     1
  0
STYLE
  5
10
100
AcDbSymbolTableRecord
100
AcDbTextStyleTableRecord
  2
STANDARD
 70
     0
 40
0.0
 41
1.0
 50
0.0
 71
     0
 42
0.2
  3
txt
  4
bigfont.shx
  0
STYLE
  5
26
100
AcDbSymbolTableRecord
100
AcDbTextStyleTableRecord
  2
TATEGAKI
 70
    68
 40
0.0
 41
1.0
 50
0.0
 71
     0
 42
1.0
  3
txt
  4
bigfont.shx
  0
ENDTAB
  0
TABLE
  2
LAYER
 70
   11
  0
LAYER
  2
_0-0_
 70
   64
 62
    7
  6
CONTINUOUS
  0
LAYER
  2
_0-1_
 70
   64
 62
    7
  6
CONTINUOUS
  0
LAYER
  2
_0-2_
 70
   64
 62
    7
  6
CONTINUOUS
  0
LAYER
  2
_0-3_
 70
   64
 62
    7
  6
CONTINUOUS
  0
LAYER
  2
_0-4_
 70
   64
 62
    7
  6
CONTINUOUS
  0
LAYER
  2
_0-5_
 70
   64
 62
    7
  6
CONTINUOUS
  0
LAYER
  2
_0-7_
 70
   64
 62
    7
  6
CONTINUOUS
  0
LAYER
  2
_0-8_
 70
   64
 62
    7
  6
CONTINUOUS
  0
LAYER
  2
_0-9_
 70
   64
 62
    7
  6
CONTINUOUS
  0
LAYER
  2
_0-f_
 70
   64
 62
    7
  6
CONTINUOUS
  0
LAYER
  2
ADD_LINE
 70
   64
 62
    7
  6
CONTINUOUS
  0
ENDTAB
  0
ENDSEC
  0
SECTION
  2
BLOCKS
  0
ENDSEC
  0
SECTION
  2
ENTITIES
  0
LINE
  8
_0-f_
  6
CONTINUOUS
 62
    3
 10
30
 20
30
 11
1230
 21
30
  0
LINE
  8
_0-f_
  6
CONTINUOUS
 62
    3
 10
1230
 20
30
 11
1230
 21
861
  0
LINE
  8
_0-f_
  6
CONTINUOUS
 62
    3
 10
1230
 20
861
 11
30
 21
861
  0
LINE
  8
_0-f_
  6
CONTINUOUS
 62
    3
 10
30
 20
861
 11
30
 21
30
  0
LINE
  8
_0-f_
  6
CONTINUOUS
 62
    7
 10
660
 20
57
 11
1230
 21
57
  0
LINE
  8
_0-f_
  6
CONTINUOUS
 62
    7
 10
660
 20
111
 11
1230
 21
111
  0
LINE
  8
_0-f_
  6
CONTINUOUS
 62
    7
 10
660
 20
30
 11
660
 21
138
  0
LINE
  8
_0-f_
  6
CONTINUOUS
 62
    7
 10
660
 20
138
 11
1230
 21
138
  0
LINE
  8
_0-f_
  6
CONTINUOUS
 62
    7
 10
1179
 20
30
 11
1179
 21
57
  0
LINE
  8
_0-f_
  6
CONTINUOUS
 62
    7
 10
945
 20
57
 11
945
 21
138
  0
LINE
  8
_0-f_
  6
CONTINUOUS
 62
    7
 10
1155
 20
84
 11
1155
 21
138
  0
LINE
  8
_0-f_
  6
CONTINUOUS
 62
    7
 10
780
 20
57
 11
780
 21
111
  0
LINE
  8
_0-f_
  6
CONTINUOUS
 62
    7
 10
720
 20
57
 11
720
 21
111
  0
LINE
  8
_0-f_
  6
CONTINUOUS
 62
    7
 10
840
 20
84
 11
1230
 21
84
  0
LINE
  8
_0-f_
  6
CONTINUOUS
 62
    7
 10
840
 20
30
 11
840
 21
111
  0
TEXT
  8
_0-f_
 62
    7
 10
663
 20
126
 40
9
 41
0.6666666666666666
 50
0
  1
注
  0
TEXT
  8
_0-f_
 62
    7
 10
948
 20
126
 40
9
 41
0.6666666666666666
 50
0
  1
材質　MATERIAL
  0
POINT
  8
_0-f_
 62
    9
 10
681
 20
112.5
  0
POINT
  8
_0-f_
 62
    9
 10
972
 20
112.5
  0
POINT
  8
_0-f_
 62
    9
 10
948
 20
126
  0
TEXT
  8
_0-f_
 62
    7
 10
1158
 20
126
 40
9
 41
0.6666666666666666
 50
0
  1
個数　QUANTITY
  0
TEXT
  8
_0-f_
 62
    7
 10
663
 20
99
 40
9
 41
0.6666666666666666
 50
0
  1
APPROVED
  0
TEXT
  8
_0-f_
 62
    7
 10
723
 20
99
 40
9
 41
0.6666666666666666
 50
0
  1
CHECKED
  0
TEXT
  8
_0-f_
 62
    7
 10
783
 20
99
 40
9
 41
0.6666666666666666
 50
0
  1
DESIGNER
  0
TEXT
  8
_0-f_
 62
    7
 10
843
 20
99
 40
9
 41
0.6666666666666666
 50
0
  1
図面サイズ　SIZU
  0
TEXT
  8
_0-f_
 62
    7
 10
843
 20
72
 40
9
 41
0.6666666666666666
 50
0
  1
日付　DATE
  0
TEXT
  8
_0-f_
 62
    7
 10
948
 20
99
 40
9
 41
0.6666666666666666
 50
0
  1
表面処理　SURFACE TREATMENT
  0
TEXT
  8
_0-f_
 62
    7
 10
1158
 20
99
 40
9
 41
0.6666666666666666
 50
0
  1
尺度　SCALE
  0
TEXT
  8
_0-f_
 62
    7
 10
843
 20
43.5
 40
10.5
 41
0.7142857142857143
 50
0
  1
図　　番
  0
TEXT
  8
_0-f_
 62
    7
 10
880.5
 20
48
 40
6
 41
1
 50
0
  1
DRAWING No
  0
TEXT
  8
_0-f_
 62
    7
 10
972
 20
112.5
 40
10.5
 41
1
 50
0
  1
別記
  0
TEXT
  8
_0-f_
 62
    7
 10
957
 20
85.5
 40
10.5
 41
1
 50
0
  1
別記
  0
TEXT
  8
_0-f_
 62
    7
 10
1173
 20
112.5
 40
10.5
 41
1
 50
0
  1
別記
  0
TEXT
  8
_0-f_
 62
    7
 10
1182
 20
45
 40
9
 41
0.6666666666666666
 50
0
  1
ユニット
  0
TEXT
  8
_0-f_
 62
    7
 10
795
 20
58.5
 40
15
 41
1
 50
0
  1
玉置
  0
TEXT
  8
_0-f_
 62
    7
 10
717
 20
34.5
 40
18
 41
0.8333333333333333
 50
0
  1
株式会社アウス
  0
POINT
  8
_0-f_
 62
    9
 10
690
 20
58.5
  0
POINT
  8
_0-f_
 62
    9
 10
750
 20
58.5
  0
POINT
  8
_0-f_
 62
    9
 10
810
 20
58.5
  0
POINT
  8
_0-f_
 62
    9
 10
663
 20
99
  0
POINT
  8
_0-f_
 62
    9
 10
723
 20
99
  0
POINT
  8
_0-f_
 62
    9
 10
783
 20
99
  0
POINT
  8
_0-f_
 62
    9
 10
843
 20
99
  0
POINT
  8
_0-f_
 62
    9
 10
948
 20
99
  0
POINT
  8
_0-f_
 62
    9
 10
957
 20
85.5
  0
POINT
  8
_0-f_
 62
    9
 10
843
 20
43.5
  0
POINT
  8
_0-f_
 62
    9
 10
717
 20
34.5
  0
POINT
  8
_0-f_
 62
    9
 10
957
 20
31.5
  0
POINT
  8
_0-f_
 62
    9
 10
957
 20
58.5
  0
POINT
  8
_0-f_
 62
    9
 10
1164
 20
85.5
  0
POINT
  8
_0-f_
 62
    9
 10
1158
 20
99
  0
POINT
  8
_0-f_
 62
    9
 10
1158
 20
126
  0
POINT
  8
_0-f_
 62
    9
 10
1173
 20
112.5
  0
POINT
  8
_0-f_
 62
    9
 10
1194
 20
31.5
  0
POINT
  8
_0-f_
 62
    9
 10
1182
 20
45
  0
POINT
  8
_0-f_
 62
    9
 10
843
 20
72
  0
POINT
  8
_0-f_
 62
    9
 10
892.5
 20
85.5
  0
POINT
  8
_0-f_
 62
    9
 10
892.5
 20
58.5
  0
TEXT
  8
_0-f_
 62
    7
 10
948
 20
73.5
 40
9
 41
0.6666666666666666
 50
0
  1
図面名　TITLE
  0
POINT
  8
_0-f_
 62
    9
 10
948
 20
73.5
  0
TEXT
  8
_0-f_
 62
    7
 10
681
 20
112.5
 40
10.5
 41
1
 50
0
  1
　
  0
TEXT
  8
_0-f_
 62
    7
 10
1194
 20
31.5
 40
10.5
 41
1
 50
0
  1
　
  0
TEXT
  8
_0-f_
 62
    7
 10
882
 20
85.5
 40
10.5
 41
1
 50
0
  1
Ａ３
  0
TEXT
  8
_0-f_
 62
    7
 10
1194
 20
31.5
 40
10.5
 41
1
 50
0
  1
SB
  0
LINE
  8
_0-0_
  6
CONTINUOUS
 62
    7
 10
582
 20
667.17136103677467
 11
588.36396103067887
 21
673.53532206745354
  0
LINE
  8
_0-0_
  6
CONTINUOUS
 62
    7
 10
582
 20
667.17136103677467
 11
604.20577136594011
 21
679.99186911246352
  0
LINE
  8
_0-0_
  6
CONTINUOUS
 62
    7
 10
582
 20
667.17136103677467
 11
590.69333243660162
 21
669.50073244269743
  0
CIRCLE
  8
_0-0_
  6
CONTINUOUS
 62
    7
 10
612
 20
684.49186911246352
 40
9
  0
TEXT
  8
_0-0_
 62
    7
 10
604.5
 20
676.99186911246352
 40
15
 41
1
 50
0
  1
１
  0
POINT
  8
_0-0_
 62
    2
 10
541
 20
579
  0
LINE
  8
_0-0_
  6
CONTINUOUS
 62
    7
 10
541
 20
579
 11
604.20577136594011
 21
615.49186911246352
  0
CIRCLE
  8
_0-0_
  6
CONTINUOUS
 62
    7
 10
612
 20
619.99186911246341
 40
9
  0
TEXT
  8
_0-0_
 62
    7
 10
604.5
 20
612.49186911246341
 40
15
 41
1
 50
0
  1
２
  0
LINE
  8
_0-0_
  6
CONTINUOUS
 62
    7
 10
579.99999135785401
 20
475.00002322576745
 11
586.36395238853288
 21
481.36398425644643
  0
LINE
  8
_0-0_
  6
CONTINUOUS
 62
    7
 10
579.99999135785401
 20
475.00002322576745
 11
604.20577136594011
 21
488.97523682938083
  0
LINE
  8
_0-0_
  6
CONTINUOUS
 62
    7
 10
579.99999135785401
 20
475.00002322576745
 11
588.69332379445564
 21
477.32939463169015
  0
CIRCLE
  8
_0-0_
  6
CONTINUOUS
 62
    7
 10
612
 20
493.47523682938083
 40
9
  0
TEXT
  8
_0-0_
 62
    7
 10
604.5
 20
485.97523682938083
 40
15
 41
1
 50
0
  1
７
  0
LINE
  8
_0-1_
  6
CONTINUOUS
 62
    7
 10
132
 20
429
 11
132
 21
729
  0
LINE
  8
_0-1_
  6
CONTINUOUS
 62
    7
 10
582
 20
429
 11
132
 21
429
  0
LINE
  8
_0-1_
  6
CONTINUOUS
 62
    7
 10
582
 20
429
 11
582
 21
729
  0
LINE
  8
_0-1_
  6
CONTINUOUS
 62
    7
 10
582
 20
729
 11
132
 21
729
  0
LINE
  8
_0-1_
  6
CONTINUOUS
 62
    7
 10
582
 20
324.99999675919526
 11
132
 21
324.99999675919526
  0
LINE
  8
_0-1_
  6
CONTINUOUS
 62
    7
 10
163.99999999999997
 20
324.99999675919526
 11
163.99999999999997
 21
185.49999675919528
  0
LINE
  8
_0-1_
  6
CONTINUOUS
 62
    7
 10
150.49999999999997
 20
185.49999675919528
 11
163.99999999999997
 21
185.49999675919528
  0
LINE
  8
_0-1_
  6
CONTINUOUS
 62
    7
 10
148.99999999999997
 20
186.99999675919528
 11
148.99999999999997
 21
324.99999675919526
  0
ARC
  8
_0-1_
  6
CONTINUOUS
 62
    7
 10
150.49999999999997
 20
186.99999675919528
 40
1.5
 50
180
 51
270
  0
LINE
  8
_0-1_
  6
CONTINUOUS
 62
    7
 10
565
 20
186.99999675919528
 11
148.99999999999989
 21
186.99999675919528
  0
LINE
  8
_0-1_
  6
CONTINUOUS
 62
    7
 10
565
 20
186.99999675919528
 11
565
 21
324.99999675919526
  0
ARC
  8
_0-1_
  6
CONTINUOUS
 62
    7
 10
563.5
 20
186.99999675919528
 40
1.5
 50
270
 51
0
  0
LINE
  8
_0-1_
  6
CONTINUOUS
 62
    7
 10
563.5
 20
185.49999675919528
 11
550
 21
185.49999675919528
  0
LINE
  8
_0-1_
  6
CONTINUOUS
 62
    7
 10
550
 20
324.99999675919526
 11
550
 21
185.49999675919528
  0
LINE
  8
_0-1_
  6
CONTINUOUS
 62
    7
 10
561.83012781733964
 20
209.50000810201189
 11
553.16988730641594
 21
204.5000189046944
  0
LINE
  8
_0-1_
  6
CONTINUOUS
 62
    7
 10
557.50004537126665
 20
212.00000270067068
 11
557.50004537126665
 21
202.00000540134127
  0
LINE
  8
_0-1_
  6
CONTINUOUS
 62
    7
 10
553.16988730641594
 20
209.50000810201189
 11
561.83012781733964
 21
204.5000189046944
  0
LINE
  8
_0-1_
  6
CONTINUOUS
 62
    7
 10
561.83012781733964
 20
264.50000270067068
 11
553.16988730641594
 21
259.5000135033531
  0
LINE
  8
_0-1_
  6
CONTINUOUS
 62
    7
 10
557.50004537126665
 20
267.00001620402372
 11
557.50004537126665
 21
257.0000189046944
  0
LINE
  8
_0-1_
  6
CONTINUOUS
 62
    7
 10
553.16988730641594
 20
264.50000270067068
 11
561.83012781733964
 21
259.5000135033531
  0
LINE
  8
_0-1_
  6
CONTINUOUS
 62
    7
 10
561.83012781733964
 20
319.50001620402372
 11
553.16988730641594
 21
314.5000270067062
  0
LINE
  8
_0-1_
  6
CONTINUOUS
 62
    7
 10
557.50004537126665
 20
322.00001080268248
 11
557.50004537126665
 21
311.99999459865876
  0
LINE
  8
_0-1_
  6
CONTINUOUS
 62
    7
 10
553.16988730641594
 20
319.50001620402372
 11
561.83012781733964
 21
314.5000270067062
  0
LINE
  8
_0-1_
  6
CONTINUOUS
 62
    7
 10
160.83016130565551
 20
319.50001620402372
 11
152.16990189003747
 21
314.5000270067062
  0
LINE
  8
_0-1_
  6
CONTINUOUS
 62
    7
 10
156.50002214549923
 20
322.00001080268248
 11
156.50002214549923
 21
311.99999459865876
  0
LINE
  8
_0-1_
  6
CONTINUOUS
 62
    7
 10
152.16990189003747
 20
319.50001620402372
 11
160.83016130565551
 21
314.5000270067062
  0
LINE
  8
_0-1_
  6
CONTINUOUS
 62
    7
 10
152.16990189003747
 20
264.50000270067068
 11
160.83016130565551
 21
259.5000135033531
  0
LINE
  8
_0-1_
  6
CONTINUOUS
 62
    7
 10
156.50002214549923
 20
267.00001620402372
 11
156.50002214549923
 21
257.0000189046944
  0
LINE
  8
_0-1_
  6
CONTINUOUS
 62
    7
 10
160.83016130565551
 20
264.50000270067068
 11
152.16990189003747
 21
259.5000135033531
  0
LINE
  8
_0-1_
  6
CONTINUOUS
 62
    7
 10
156.50002214549923
 20
212.00000270067068
 11
156.50002214549923
 21
202.00000540134127
  0
LINE
  8
_0-1_
  6
CONTINUOUS
 62
    7
 10
152.16990189003747
 20
209.50000810201189
 11
160.83016130565551
 21
204.5000189046944
  0
LINE
  8
_0-1_
  6
CONTINUOUS
 62
    7
 10
160.83016130565551
 20
209.50000810201189
 11
152.16990189003747
 21
204.5000189046944
  0
LINE
  8
_0-1_
  6
CONTINUOUS
 62
    7
 10
582
 20
335.4999967591952
 11
582
 21
324.99999675919526
  0
ARC
  8
_0-1_
  6
CONTINUOUS
 62
    7
 10
580.5
 20
335.4999967591952
 40
1.5
 50
0
 51
90.000000000000014
  0
LINE
  8
_0-1_
  6
CONTINUOUS
 62
    7
 10
132
 20
335.4999967591952
 11
132
 21
324.99999675919526
  0
ARC
  8
_0-1_
  6
CONTINUOUS
 62
    7
 10
133.5
 20
335.4999967591952
 40
1.5
 50
90
 51
180
  0
LINE
  8
_0-1_
  6
CONTINUOUS
 62
    7
 10
133.5
 20
336.9999967591952
 11
580.5
 21
336.9999967591952
  0
LINE
  8
_0-1_
  6
CONTINUOUS
 62
    7
 10
675.50004105019343
 20
729
 11
686.00004105019343
 21
729
  0
ARC
  8
_0-1_
  6
CONTINUOUS
 62
    7
 10
675.50004105019343
 20
727.5
 40
1.5
 50
90
 51
180
  0
LINE
  8
_0-1_
  6
CONTINUOUS
 62
    7
 10
675.50004105019343
 20
429
 11
686.00004105019343
 21
429
  0
ARC
  8
_0-1_
  6
CONTINUOUS
 62
    7
 10
675.50004105019343
 20
430.5
 40
1.5
 50
180
 51
270
  0
LINE
  8
_0-1_
  6
CONTINUOUS
 62
    7
 10
825.50004105019332
 20
449.00000000000006
 11
825.50004105019332
 21
709
  0
LINE
  8
_0-2_
  6
CONTINUOUS
 62
    7
 10
153
 20
450
 11
153
 21
708
  0
LINE
  8
_0-2_
  6
CONTINUOUS
 62
    7
 10
561
 20
450
 11
153
 21
450
  0
LINE
  8
_0-2_
  6
CONTINUOUS
 62
    7
 10
561
 20
450
 11
561
 21
708
  0
LINE
  8
_0-2_
  6
CONTINUOUS
 62
    7
 10
561
 20
708
 11
153
 21
708
  0
LINE
  8
_0-3_
  6
CONTINUOUS
 62
    7
 10
421.99998649664678
 20
694.9999978394635
 11
421.99998649664678
 21
610.00003024751106
  0
LINE
  8
_0-3_
  6
CONTINUOUS
 62
    7
 10
292.00000270067062
 20
610.00003024751106
 11
421.99998649664678
 21
610.00003024751106
  0
ARC
  8
_0-3_
  6
CONTINUOUS
 62
    7
 10
397.49999405852446
 20
634.99997623409854
 40
4.9999998312080853
 50
270
 51
0
  0
LINE
  8
_0-3_
  6
CONTINUOUS
 62
    7
 10
316.49999513879277
 20
629.99998703678102
 11
397.49999405852446
 21
629.99998703678102
  0
LINE
  8
_0-3_
  6
CONTINUOUS
 62
    7
 10
402.49998325584204
 20
660.99998055517153
 11
402.49998325584204
 21
634.99997623409854
  0
ARC
  8
_0-3_
  6
CONTINUOUS
 62
    7
 10
397.49999405852446
 20
660.99998055517153
 40
4.9999998312080853
 50
0
 51
89.999969482421875
  0
LINE
  8
_0-3_
  6
CONTINUOUS
 62
    7
 10
316.49999513879277
 20
665.99996975248894
 11
397.49999405852446
 21
665.99996975248894
  0
ARC
  8
_0-3_
  6
CONTINUOUS
 62
    7
 10
316.49999513879277
 20
660.99998055517153
 40
4.9999998312080853
 50
89.999969482421875
 51
180.00001525878903
  0
LINE
  8
_0-3_
  6
CONTINUOUS
 62
    7
 10
311.50000594147537
 20
660.99998055517153
 11
311.50000594147537
 21
634.99997623409854
  0
ARC
  8
_0-3_
  6
CONTINUOUS
 62
    7
 10
316.49999513879277
 20
634.99997623409854
 40
4.9999998312080853
 50
180.00001525878906
 51
270
  0
LINE
  8
_0-3_
  6
CONTINUOUS
 62
    7
 10
292.00000270067062
 20
694.9999978394635
 11
292.00000270067062
 21
610.00003024751106
  0
LINE
  8
_0-3_
  6
CONTINUOUS
 62
    7
 10
421.99998649664678
 20
694.9999978394635
 11
292.00000270067062
 21
694.9999978394635
  0
LINE
  8
_0-3_
  6
CONTINUOUS
 62
    7
 10
292.00000270067062
 20
336.9999967591952
 11
421.99998649664678
 21
336.9999967591952
  0
LINE
  8
_0-3_
  6
CONTINUOUS
 62
    7
 10
421.99998649664678
 20
336.9999967591952
 11
419.99998325584198
 21
339
  0
LINE
  8
_0-3_
  6
CONTINUOUS
 62
    7
 10
294.00000594147537
 20
339
 11
419.99998325584198
 21
339
  0
LINE
  8
_0-3_
  6
CONTINUOUS
 62
    7
 10
294.00000594147537
 20
339
 11
292.00000270067062
 21
336.9999967591952
  0
LINE
  8
_0-3_
  6
CONTINUOUS
 62
    7
 10
674.00006697663139
 20
694.99997191302543
 11
674.00006697663139
 21
610.00000432107299
  0
LINE
  8
_0-3_
  6
CONTINUOUS
 62
    7
 10
674.00006697663139
 20
694.99997191302543
 11
672.00002592643796
 21
693.00000648160972
  0
LINE
  8
_0-3_
  6
CONTINUOUS
 62
    7
 10
672.00002592643796
 20
611.99996975248894
 11
672.00002592643796
 21
693.00000648160972
  0
LINE
  8
_0-3_
  6
CONTINUOUS
 62
    7
 10
672.00002592643796
 20
611.99996975248894
 11
674.00006697663139
 21
610.00000432107299
  0
LINE
  8
_0-5_
  6
DASHED2
 62
    4
 10
203.99997191302546
 20
651.5000108026826
 11
203.99997191302546
 21
631.50005401341264
  0
LINE
  8
_0-5_
  6
DASHED2
 62
    4
 10
200.99994814712383
 20
651.5000108026826
 11
200.99994814712383
 21
631.50005401341264
  0
LINE
  8
_0-5_
  6
DASHED2
 62
    4
 10
194.99997623409845
 20
651.5000108026826
 11
194.99997623409845
 21
631.50005401341264
  0
LINE
  8
_0-5_
  6
DASHED2
 62
    4
 10
191.99995246819691
 20
651.5000108026826
 11
191.99995246819691
 21
631.50005401341264
  0
ARC
  8
_0-5_
  6
DASHED2
 62
    4
 10
197.99996219061114
 20
630.00000432107299
 40
1.5000000675167655
 50
0
 51
89.999969482421875
  0
ARC
  8
_0-5_
  6
DASHED2
 62
    4
 10
197.99996219061114
 20
630.00000432107299
 40
1.5000000675167655
 50
89.999969482421875
 51
180.00001525878903
  0
ARC
  8
_0-5_
  6
DASHED2
 62
    4
 10
197.99996219061114
 20
631.50005401341264
 40
6.000000270067062
 50
284.47749328613281
 51
0.0000000000000254
  0
ARC
  8
_0-5_
  6
DASHED2
 62
    4
 10
197.99996219061114
 20
631.50005401341264
 40
3.000000135033531
 50
299.78858947753906
 51
0
  0
ARC
  8
_0-5_
  6
DASHED2
 62
    4
 10
197.99996219061114
 20
631.50005401341264
 40
3.000000135033531
 50
180.00001525878906
 51
240.42987060546875
  0
ARC
  8
_0-5_
  6
DASHED2
 62
    4
 10
197.99996219061114
 20
631.50005401341264
 40
6.000000270067062
 50
180.00001525878906
 51
255.39689636230469
  0
ARC
  8
_0-5_
  6
DASHED2
 62
    4
 10
197.99996219061114
 20
651.5000108026826
 40
3.000000135033531
 50
0
 51
60.211380004882805
  0
ARC
  8
_0-5_
  6
DASHED2
 62
    4
 10
197.99996219061114
 20
651.5000108026826
 40
3.000000135033531
 50
119.57009887695312
 51
180.00001525878903
  0
ARC
  8
_0-5_
  6
DASHED2
 62
    4
 10
197.99996219061114
 20
653.00006049502213
 40
1.5000000675167655
 50
270
 51
0
  0
ARC
  8
_0-5_
  6
DASHED2
 62
    4
 10
197.99996219061114
 20
653.00006049502213
 40
1.5000000675167655
 50
180.00001525878906
 51
270
  0
LINE
  8
_0-5_
  6
DASHED2
 62
    4
 10
199.49997407356196
 20
630.00000432107299
 11
199.49997407356196
 21
601.00005185287614
  0
LINE
  8
_0-5_
  6
DASHED2
 62
    4
 10
196.49995030766041
 20
630.00000432107299
 11
196.49995030766041
 21
601.00005185287614
  0
ARC
  8
_0-5_
  6
DASHED2
 62
    4
 10
197.99996219061114
 20
601.00005185287614
 40
1.5000000675167655
 50
180.00001525878906
 51
270
  0
ARC
  8
_0-5_
  6
DASHED2
 62
    4
 10
197.99996219061114
 20
601.00005185287614
 40
1.5000000675167655
 50
270
 51
0
  0
ARC
  8
_0-5_
  6
DASHED2
 62
    4
 10
197.99996219061114
 20
651.5000108026826
 40
6.000000270067062
 50
0
 51
75.522476196289063
  0
LINE
  8
_0-5_
  6
DASHED2
 62
    4
 10
199.49997407356196
 20
662.00005617394913
 11
199.49997407356196
 21
653.00006049502213
  0
LINE
  8
_0-5_
  6
DASHED2
 62
    4
 10
196.49995030766041
 20
662.00005617394913
 11
196.49995030766041
 21
653.00006049502213
  0
ARC
  8
_0-5_
  6
DASHED2
 62
    4
 10
197.99996219061114
 20
651.5000108026826
 40
6.000000270067062
 50
104.60311889648437
 51
180.00001525878906
  0
ARC
  8
_0-5_
  6
DASHED2
 62
    4
 10
197.99996219061114
 20
662.00005617394913
 40
1.5000000675167655
 50
89.999969482421875
 51
180.00001525878903
  0
ARC
  8
_0-5_
  6
DASHED2
 62
    4
 10
197.99996219061114
 20
662.00005617394913
 40
1.5000000675167655
 50
0
 51
89.999969482421875
  0
LINE
  8
_0-7_
  6
DASHED2
 62
    4
 10
579.99999135785401
 20
478.00002808697457
 11
579.99999135785401
 21
472.00001836456033
  0
LINE
  8
_0-7_
  6
DASHED2
 62
    4
 10
135.00001026254836
 20
479.00001080268254
 11
135.00001026254836
 21
473.00000108026831
  0
LINE
  8
_0-8_
  6
CONTINUOUS
 62
    7
 10
412.49999105777943
 20
687.50003504870347
 11
411.50000834207145
 21
687.50003504870347
  0
LINE
  8
_0-8_
  6
CONTINUOUS
 62
    7
 10
409.50004291065551
 20
685.50003180789861
 11
409.50004291065551
 21
684.50001128280178
  0
LINE
  8
_0-8_
  6
CONTINUOUS
 62
    7
 10
411.50000834207145
 20
682.50000804199703
 11
412.49999105777943
 21
682.50000804199703
  0
LINE
  8
_0-8_
  6
CONTINUOUS
 62
    7
 10
414.50003210797308
 20
684.50001128280178
 11
414.50003210797308
 21
685.50003180789861
  0
LINE
  8
_0-8_
  6
CONTINUOUS
 62
    7
 10
412.49999105777943
 20
686.50001452360652
 11
412.49999105777943
 21
687.50003504870347
  0
LINE
  8
_0-8_
  6
CONTINUOUS
 62
    7
 10
413.4999737734874
 20
685.50003180789861
 11
414.50003210797308
 21
685.50003180789861
  0
LINE
  8
_0-8_
  6
CONTINUOUS
 62
    7
 10
413.4999737734874
 20
684.50001128280178
 11
414.50003210797308
 21
684.50001128280178
  0
LINE
  8
_0-8_
  6
CONTINUOUS
 62
    7
 10
412.49999105777943
 20
683.50002856709375
 11
412.49999105777943
 21
682.50000804199703
  0
LINE
  8
_0-8_
  6
CONTINUOUS
 62
    7
 10
411.50000834207145
 20
683.50002856709375
 11
411.50000834207145
 21
682.50000804199703
  0
LINE
  8
_0-8_
  6
CONTINUOUS
 62
    7
 10
410.50002562636359
 20
684.50001128280178
 11
409.50004291065551
 21
684.50001128280178
  0
LINE
  8
_0-8_
  6
CONTINUOUS
 62
    7
 10
410.50002562636359
 20
685.50003180789861
 11
409.50004291065551
 21
685.50003180789861
  0
LINE
  8
_0-8_
  6
CONTINUOUS
 62
    7
 10
411.50000834207145
 20
686.50001452360652
 11
411.50000834207145
 21
687.50003504870347
  0
CIRCLE
  8
_0-8_
  6
CONTINUOUS
 62
    7
 10
411.99999969992552
 20
685.00000264065579
 40
3.9999999831208077
  0
ARC
  8
_0-8_
  6
CONTINUOUS
 62
    7
 10
413.4999737734874
 20
686.50001452360652
 40
0.9999999957802019
 50
180.00001525878906
 51
270
  0
ARC
  8
_0-8_
  6
CONTINUOUS
 62
    7
 10
413.4999737734874
 20
683.50002856709375
 40
0.9999999957802019
 50
89.999969482421875
 51
180.00001525878903
  0
ARC
  8
_0-8_
  6
CONTINUOUS
 62
    7
 10
410.50002562636359
 20
683.50002856709375
 40
0.9999999957802019
 50
0
 51
89.999969482421875
  0
ARC
  8
_0-8_
  6
CONTINUOUS
 62
    7
 10
410.50002562636359
 20
686.50001452360652
 40
0.9999999957802019
 50
270
 51
0
  0
CIRCLE
  8
_0-8_
  6
CONTINUOUS
 62
    7
 10
411.99999969992552
 20
685.00000264065579
 40
3.9999999831208077
  0
LINE
  8
_0-8_
  6
CONTINUOUS
 62
    7
 10
412.49999105777943
 20
622.50002424602087
 11
411.50000834207145
 21
622.50002424602087
  0
LINE
  8
_0-8_
  6
CONTINUOUS
 62
    7
 10
409.50004291065551
 20
620.50002100521613
 11
409.50004291065551
 21
619.5000004801193
  0
LINE
  8
_0-8_
  6
CONTINUOUS
 62
    7
 10
411.50000834207145
 20
617.49999723931455
 11
412.49999105777943
 21
617.49999723931455
  0
LINE
  8
_0-8_
  6
CONTINUOUS
 62
    7
 10
414.50003210797308
 20
619.5000004801193
 11
414.50003210797308
 21
620.50002100521613
  0
LINE
  8
_0-8_
  6
CONTINUOUS
 62
    7
 10
412.49999105777943
 20
621.50000372092416
 11
412.49999105777943
 21
622.50002424602087
  0
LINE
  8
_0-8_
  6
CONTINUOUS
 62
    7
 10
413.4999737734874
 20
620.50002100521613
 11
414.50003210797308
 21
620.50002100521613
  0
LINE
  8
_0-8_
  6
CONTINUOUS
 62
    7
 10
413.4999737734874
 20
619.5000004801193
 11
414.50003210797308
 21
619.5000004801193
  0
LINE
  8
_0-8_
  6
CONTINUOUS
 62
    7
 10
412.49999105777943
 20
618.50001776441138
 11
412.49999105777943
 21
617.49999723931455
  0
LINE
  8
_0-8_
  6
CONTINUOUS
 62
    7
 10
411.50000834207145
 20
618.50001776441138
 11
411.50000834207145
 21
617.49999723931455
  0
LINE
  8
_0-8_
  6
CONTINUOUS
 62
    7
 10
410.50002562636359
 20
619.5000004801193
 11
409.50004291065551
 21
619.5000004801193
  0
LINE
  8
_0-8_
  6
CONTINUOUS
 62
    7
 10
410.50002562636359
 20
620.50002100521613
 11
409.50004291065551
 21
620.50002100521613
  0
LINE
  8
_0-8_
  6
CONTINUOUS
 62
    7
 10
411.50000834207145
 20
621.50000372092416
 11
411.50000834207145
 21
622.50002424602087
  0
CIRCLE
  8
_0-8_
  6
CONTINUOUS
 62
    7
 10
411.99999969992552
 20
619.99999183797331
 40
3.9999999831208077
  0
ARC
  8
_0-8_
  6
CONTINUOUS
 62
    7
 10
413.4999737734874
 20
621.50000372092416
 40
0.9999999957802019
 50
180.00001525878906
 51
270
  0
ARC
  8
_0-8_
  6
CONTINUOUS
 62
    7
 10
413.4999737734874
 20
618.50001776441138
 40
0.9999999957802019
 50
89.999969482421875
 51
180.00001525878903
  0
ARC
  8
_0-8_
  6
CONTINUOUS
 62
    7
 10
410.50002562636359
 20
618.50001776441138
 40
0.9999999957802019
 50
0
 51
89.999969482421875
  0
ARC
  8
_0-8_
  6
CONTINUOUS
 62
    7
 10
410.50002562636359
 20
621.50000372092416
 40
0.9999999957802019
 50
270
 51
0
  0
CIRCLE
  8
_0-8_
  6
CONTINUOUS
 62
    7
 10
411.99999969992552
 20
619.99999183797331
 40
3.9999999831208077
  0
LINE
  8
_0-8_
  6
CONTINUOUS
 62
    7
 10
302.50000186046191
 20
622.50002424602087
 11
301.50001914475399
 21
622.50002424602087
  0
LINE
  8
_0-8_
  6
CONTINUOUS
 62
    7
 10
299.50005371333805
 20
620.50002100521613
 11
299.50005371333805
 21
619.5000004801193
  0
LINE
  8
_0-8_
  6
CONTINUOUS
 62
    7
 10
301.50001914475399
 20
617.49999723931455
 11
302.50000186046191
 21
617.49999723931455
  0
LINE
  8
_0-8_
  6
CONTINUOUS
 62
    7
 10
304.50004291065557
 20
619.5000004801193
 11
304.50004291065557
 21
620.50002100521613
  0
LINE
  8
_0-8_
  6
CONTINUOUS
 62
    7
 10
302.50000186046191
 20
621.50000372092416
 11
302.50000186046191
 21
622.50002424602087
  0
LINE
  8
_0-8_
  6
CONTINUOUS
 62
    7
 10
303.49998457616994
 20
620.50002100521613
 11
304.50004291065557
 21
620.50002100521613
  0
LINE
  8
_0-8_
  6
CONTINUOUS
 62
    7
 10
303.49998457616994
 20
619.5000004801193
 11
304.50004291065557
 21
619.5000004801193
  0
LINE
  8
_0-8_
  6
CONTINUOUS
 62
    7
 10
302.50000186046191
 20
618.50001776441138
 11
302.50000186046191
 21
617.49999723931455
  0
LINE
  8
_0-8_
  6
CONTINUOUS
 62
    7
 10
301.50001914475399
 20
618.50001776441138
 11
301.50001914475399
 21
617.49999723931455
  0
LINE
  8
_0-8_
  6
CONTINUOUS
 62
    7
 10
300.50003642904608
 20
619.5000004801193
 11
299.50005371333805
 21
619.5000004801193
  0
LINE
  8
_0-8_
  6
CONTINUOUS
 62
    7
 10
300.50003642904608
 20
620.50002100521613
 11
299.50005371333805
 21
620.50002100521613
  0
LINE
  8
_0-8_
  6
CONTINUOUS
 62
    7
 10
301.50001914475399
 20
621.50000372092416
 11
301.50001914475399
 21
622.50002424602087
  0
CIRCLE
  8
_0-8_
  6
CONTINUOUS
 62
    7
 10
302.00001050260801
 20
619.99999183797331
 40
3.9999999831208077
  0
ARC
  8
_0-8_
  6
CONTINUOUS
 62
    7
 10
303.49998457616994
 20
621.50000372092416
 40
0.9999999957802019
 50
180.00001525878906
 51
270
  0
ARC
  8
_0-8_
  6
CONTINUOUS
 62
    7
 10
303.49998457616994
 20
618.50001776441138
 40
0.9999999957802019
 50
89.999969482421875
 51
180.00001525878903
  0
ARC
  8
_0-8_
  6
CONTINUOUS
 62
    7
 10
300.50003642904608
 20
618.50001776441138
 40
0.9999999957802019
 50
0
 51
89.999969482421875
  0
ARC
  8
_0-8_
  6
CONTINUOUS
 62
    7
 10
300.50003642904608
 20
621.50000372092416
 40
0.9999999957802019
 50
270
 51
0
  0
CIRCLE
  8
_0-8_
  6
CONTINUOUS
 62
    7
 10
302.00001050260801
 20
619.99999183797331
 40
3.9999999831208077
  0
LINE
  8
_0-8_
  6
CONTINUOUS
 62
    7
 10
302.50000186046191
 20
687.50003504870347
 11
301.50001914475399
 21
687.50003504870347
  0
LINE
  8
_0-8_
  6
CONTINUOUS
 62
    7
 10
299.50005371333805
 20
685.50003180789861
 11
299.50005371333805
 21
684.50001128280178
  0
LINE
  8
_0-8_
  6
CONTINUOUS
 62
    7
 10
301.50001914475399
 20
682.50000804199703
 11
302.50000186046191
 21
682.50000804199703
  0
LINE
  8
_0-8_
  6
CONTINUOUS
 62
    7
 10
304.50004291065557
 20
684.50001128280178
 11
304.50004291065557
 21
685.50003180789861
  0
LINE
  8
_0-8_
  6
CONTINUOUS
 62
    7
 10
302.50000186046191
 20
686.50001452360652
 11
302.50000186046191
 21
687.50003504870347
  0
LINE
  8
_0-8_
  6
CONTINUOUS
 62
    7
 10
303.49998457616994
 20
685.50003180789861
 11
304.50004291065557
 21
685.50003180789861
  0
LINE
  8
_0-8_
  6
CONTINUOUS
 62
    7
 10
303.49998457616994
 20
684.50001128280178
 11
304.50004291065557
 21
684.50001128280178
  0
LINE
  8
_0-8_
  6
CONTINUOUS
 62
    7
 10
302.50000186046191
 20
683.50002856709375
 11
302.50000186046191
 21
682.50000804199703
  0
LINE
  8
_0-8_
  6
CONTINUOUS
 62
    7
 10
301.50001914475399
 20
683.50002856709375
 11
301.50001914475399
 21
682.50000804199703
  0
LINE
  8
_0-8_
  6
CONTINUOUS
 62
    7
 10
300.50003642904608
 20
684.50001128280178
 11
299.50005371333805
 21
684.50001128280178
  0
LINE
  8
_0-8_
  6
CONTINUOUS
 62
    7
 10
300.50003642904608
 20
685.50003180789861
 11
299.50005371333805
 21
685.50003180789861
  0
LINE
  8
_0-8_
  6
CONTINUOUS
 62
    7
 10
301.50001914475399
 20
686.50001452360652
 11
301.50001914475399
 21
687.50003504870347
  0
CIRCLE
  8
_0-8_
  6
CONTINUOUS
 62
    7
 10
302.00001050260801
 20
685.00000264065579
 40
3.9999999831208077
  0
ARC
  8
_0-8_
  6
CONTINUOUS
 62
    7
 10
303.49998457616994
 20
686.50001452360652
 40
0.9999999957802019
 50
180.00001525878906
 51
270
  0
ARC
  8
_0-8_
  6
CONTINUOUS
 62
    7
 10
303.49998457616994
 20
683.50002856709375
 40
0.9999999957802019
 50
89.999969482421875
 51
180.00001525878903
  0
ARC
  8
_0-8_
  6
CONTINUOUS
 62
    7
 10
300.50003642904608
 20
683.50002856709375
 40
0.9999999957802019
 50
0
 51
89.999969482421875
  0
ARC
  8
_0-8_
  6
CONTINUOUS
 62
    7
 10
300.50003642904608
 20
686.50001452360652
 40
0.9999999957802019
 50
270
 51
0
  0
CIRCLE
  8
_0-8_
  6
CONTINUOUS
 62
    7
 10
302.00001050260801
 20
685.00000264065579
 40
3.9999999831208077
  0
LINE
  8
_0-1_
  6
CONTINUOUS
 62
    7
 10
674.00004105019343
 20
430.5
 11
674.00004105019343
 21
727.5
  0
LINE
  8
_0-1_
  6
CONTINUOUS
 62
    7
 10
686.00004105019343
 20
429
 11
686.00004105019343
 21
729
  0
LINE
  8
_0-1_
  6
CONTINUOUS
 62
    7
 10
822.50004105019332
 20
709
 11
822.50004105019332
 21
712
  0
LINE
  8
_0-1_
  6
CONTINUOUS
 62
    7
 10
822.50004105019332
 20
709
 11
825.50004105019332
 21
709
  0
LINE
  8
_0-1_
  6
CONTINUOUS
 62
    7
 10
822.50004105019332
 20
449.00000000000006
 11
822.50004105019332
 21
446.00000000000006
  0
LINE
  8
_0-1_
  6
CONTINUOUS
 62
    7
 10
822.50004105019332
 20
449.00000000000006
 11
825.50004105019332
 21
449.00000000000006
  0
LINE
  8
_0-1_
  6
CONTINUOUS
 62
    7
 10
822.50004105019332
 20
446.00000000000006
 11
686.00004105019343
 21
446.00000000000006
  0
LINE
  8
_0-1_
  6
CONTINUOUS
 62
    7
 10
822.50004105019332
 20
712
 11
686.00004105019343
 21
712
  0
LINE
  8
_0-0_
  6
CONTINUOUS
 62
    7
 10
200.99994902869773
 20
656.69611383439258
 11
203.32932043462043
 21
665.38944627099409
  0
LINE
  8
_0-0_
  6
CONTINUOUS
 62
    7
 10
200.99994902869773
 20
656.69611383439258
 11
207.36391005937662
 21
663.06007486507144
  0
CIRCLE
  8
_0-0_
  6
CONTINUOUS
 62
    7
 10
260.06510989156425
 20
759
 40
9
  0
CIRCLE
  8
_0-0_
  6
CONTINUOUS
 62
    7
 10
278.06510989156425
 20
759
 40
9
  0
LINE
  8
_0-0_
  6
CONTINUOUS
 62
    7
 10
200.99996232564467
 20
656.6961634592742
 11
255.56510989156422
 21
751.20577136594011
  0
TEXT
  8
_0-0_
 62
    7
 10
252.56510989156422
 20
751.5
 40
15
 41
1
 50
0
  1
５
  0
TEXT
  8
_0-0_
 62
    7
 10
270.56510989156425
 20
751.5
 40
15
 41
1
 50
0
  1
６
  0
ARC
  8
_0-7_
  6
DASHED2
 62
    4
 10
174.99999945986582
 20
475.99998703678091
 40
4.9999998312080853
 50
270
 51
90
  0
LINE
  8
_0-7_
  6
DASHED2
 62
    4
 10
174.99999945986582
 20
479.00001080268254
 11
135.00001026254836
 21
479.00001080268254
  0
LINE
  8
_0-7_
  6
DASHED2
 62
    4
 10
174.99999945986582
 20
473.00000108026831
 11
135.00001026254836
 21
473.00000108026831
  0
ARC
  8
_0-7_
  6
DASHED2
 62
    4
 10
540.0000021605365
 20
475.00000432107299
 40
4.9999998312080853
 50
90
 51
270
  0
LINE
  8
_0-7_
  6
DASHED2
 62
    4
 10
540.0000021605365
 20
478.00002808697457
 11
579.99999135785401
 21
478.00002808697457
  0
LINE
  8
_0-7_
  6
DASHED2
 62
    4
 10
540.0000021605365
 20
472.00001836456033
 11
579.99999135785401
 21
472.00001836456033
  0
LINE
  8
_0-4_
  6
DASHED2
 62
    4
 10
391.5
 20
697
 11
322.50000000000006
 21
697
  0
ARC
  8
_0-4_
  6
DASHED2
 62
    4
 10
322.50000000000006
 20
696.5
 40
0.5
 50
90
 51
180
  0
LINE
  8
_0-4_
  6
DASHED2
 62
    4
 10
322
 20
696.5
 11
322
 21
693.5
  0
ARC
  8
_0-4_
  6
DASHED2
 62
    4
 10
322.50000000000006
 20
693.5
 40
0.5
 50
180
 51
270
  0
LINE
  8
_0-4_
  6
DASHED2
 62
    4
 10
332.00000000000006
 20
693
 11
322.50000000000006
 21
693
  0
LINE
  8
_0-4_
  6
DASHED2
 62
    4
 10
332.00000000000006
 20
693
 11
332.00000000000006
 21
680
  0
LINE
  8
_0-4_
  6
DASHED2
 62
    4
 10
350.00000000000006
 20
680
 11
332.00000000000006
 21
680
  0
LINE
  8
_0-4_
  6
DASHED2
 62
    4
 10
350.00000000000006
 20
693
 11
350.00000000000006
 21
680
  0
LINE
  8
_0-4_
  6
DASHED2
 62
    4
 10
364
 20
693
 11
350.00000000000006
 21
693
  0
LINE
  8
_0-4_
  6
DASHED2
 62
    4
 10
364
 20
680
 11
364
 21
693
  0
LINE
  8
_0-4_
  6
DASHED2
 62
    4
 10
382
 20
680
 11
364
 21
680
  0
LINE
  8
_0-4_
  6
DASHED2
 62
    4
 10
382
 20
680
 11
382
 21
693
  0
LINE
  8
_0-4_
  6
DASHED2
 62
    4
 10
391.5
 20
693
 11
382
 21
693
  0
ARC
  8
_0-4_
  6
DASHED2
 62
    4
 10
391.5
 20
693.5
 40
0.5
 50
270
 51
0
  0
LINE
  8
_0-4_
  6
DASHED2
 62
    4
 10
392.00000000000006
 20
693.5
 11
392.00000000000006
 21
696.5
  0
ARC
  8
_0-4_
  6
DASHED2
 62
    4
 10
391.5
 20
696.5
 40
0.5
 50
0
 51
90
  0
ARC
  8
_0-4_
  6
DASHED2
 62
    4
 10
349.00000000000006
 20
686.5
 40
3.4999999999999996
 50
286.60154999999997
 51
328.99728086612595
  0
ARC
  8
_0-4_
  6
DASHED2
 62
    4
 10
349.00000000000006
 20
686.5
 40
3.4999999999999996
 50
31.002719133874031
 51
73.398450000000011
  0
ARC
  8
_0-4_
  6
DASHED2
 62
    4
 10
365
 20
686.5
 40
3.4999999999999996
 50
106.60155
 51
148.99728086612598
  0
ARC
  8
_0-4_
  6
DASHED2
 62
    4
 10
365
 20
686.5
 40
3.4999999999999996
 50
211.00271913387405
 51
253.39845
  0
LINE
  8
_0-4_
  6
DASHED2
 62
    4
 10
350.00000000000006
 20
681.5
 11
364
 21
681.5
  0
LINE
  8
_0-4_
  6
DASHED2
 62
    4
 10
362
 20
691.5
 11
362
 21
681.5
  0
LINE
  8
_0-4_
  6
DASHED2
 62
    4
 10
350.00000000000006
 20
691.5
 11
364
 21
691.5
  0
LINE
  8
_0-4_
  6
DASHED2
 62
    4
 10
352.00000000000006
 20
691.5
 11
352.00000000000006
 21
681.5
  0
CIRCLE
  8
_0-4_
  6
DASHED2
 62
    4
 10
372
 20
686.5
 40
4
  0
CIRCLE
  8
_0-4_
  6
DASHED2
 62
    4
 10
342.00000000000006
 20
686.5
 40
4
  0
LINE
  8
_0-4_
  6
DASHED2
 62
    4
 10
350.00000000000006
 20
691.5
 11
336.00000000000006
 21
691.5
  0
LINE
  8
_0-4_
  6
DASHED2
 62
    4
 10
336.00000000000006
 20
681.5
 11
336.00000000000006
 21
691.5
  0
LINE
  8
_0-4_
  6
DASHED2
 62
    4
 10
350.00000000000006
 20
681.5
 11
336.00000000000006
 21
681.5
  0
LINE
  8
_0-4_
  6
DASHED2
 62
    4
 10
364
 20
681.5
 11
378
 21
681.5
  0
LINE
  8
_0-4_
  6
DASHED2
 62
    4
 10
378
 20
681.5
 11
378
 21
691.5
  0
LINE
  8
_0-4_
  6
DASHED2
 62
    4
 10
364
 20
691.5
 11
378
 21
691.5
  0
CIRCLE
  8
_0-4_
  6
DASHED2
 62
    4
 10
372
 20
686.5
 40
2
  0
CIRCLE
  8
_0-4_
  6
DASHED2
 62
    4
 10
342.00000000000006
 20
686.5
 40
2
  0
CIRCLE
  8
_0-0_
  6
CONTINUOUS
 62
    7
 10
321.20428331024317
 20
759
 40
9
  0
CIRCLE
  8
_0-0_
  6
CONTINUOUS
 62
    7
 10
339.20428331024317
 20
759
 40
9
  0
TEXT
  8
_0-0_
 62
    7
 10
331.70428331024317
 20
751.5
 40
15
 41
1
 50
0
  1
８
  0
TEXT
  8
_0-0_
 62
    7
 10
348.11362941316969
 20
751.53938601180778
 40
10.5
 41
1
 50
0
  1
x4
  0
TEXT
  8
_0-0_
 62
    7
 10
313.70428331024317
 20
751.5
 40
15
 41
1
 50
0
  1
４
  0
LINE
  8
_0-0_
  6
CONTINUOUS
 62
    7
 10
357
 20
697
 11
350.63603896932108
 21
703.36396103067887
  0
LINE
  8
_0-0_
  6
CONTINUOUS
 62
    7
 10
357
 20
697
 11
325.70428331024317
 21
751.20577136594011
  0
LINE
  8
_0-0_
  6
CONTINUOUS
 62
    7
 10
357
 20
697
 11
354.6706285940773
 21
705.69333243660162
  0
LINE
  8
_0-0_
  6
CONTINUOUS
 62
    7
 10
406.99999324832345
 20
694.9999978394635
 11
409.32936465424609
 21
703.69333027606513
  0
LINE
  8
_0-0_
  6
CONTINUOUS
 62
    7
 10
406.99999324832345
 20
694.9999978394635
 11
413.36395427900231
 21
701.36395887014248
  0
CIRCLE
  8
_0-0_
  6
CONTINUOUS
 62
    7
 10
443.95041172384583
 20
759
 40
9
  0
TEXT
  8
_0-0_
 62
    7
 10
436.45041172384583
 20
751.5
 40
15
 41
1
 50
0
  1
３
  0
CIRCLE
  8
_0-0_
  6
CONTINUOUS
 62
    7
 10
461.95041172384583
 20
759
 40
9
  0
TEXT
  8
_0-0_
 62
    7
 10
454.45041172384583
 20
751.5
 40
15
 41
1
 50
0
  1
８
  0
TEXT
  8
_0-0_
 62
    7
 10
470.85975782677235
 20
751.53938601180778
 40
10.5
 41
1
 50
0
  1
x4
  0
LINE
  8
_0-0_
  6
CONTINUOUS
 62
    7
 10
406.99999324832345
 20
694.9999978394635
 11
439.45041172384583
 21
751.20577136594011
  0
LINE
  8
_0-0_
  6
CONTINUOUS
 62
    2
 10
153
 20
783
 11
161.69333243660159
 21
785.32937140592276
  0
LINE
  8
_0-0_
  6
CONTINUOUS
 62
    2
 10
153
 20
783
 11
161.69333243660159
 21
780.67062859407724
  0
LINE
  8
_0-0_
  6
CONTINUOUS
 62
    2
 10
561
 20
783
 11
552.30666756339838
 21
785.32937140592276
  0
LINE
  8
_0-0_
  6
CONTINUOUS
 62
    2
 10
561
 20
783
 11
552.30666756339838
 21
780.67062859407724
  0
LINE
  8
_0-0_
  6
CONTINUOUS
 62
    2
 10
153
 20
786
 11
153
 21
711
  0
LINE
  8
_0-0_
  6
CONTINUOUS
 62
    2
 10
561
 20
786
 11
561
 21
711
  0
LINE
  8
_0-0_
  6
CONTINUOUS
 62
    2
 10
153
 20
783
 11
561
 21
783
  0
TEXT
  8
_0-0_
 62
    7
 10
345
 20
784.5
 40
15
 41
1
 50
0
  1
408
  0
LINE
  8
_0-0_
  6
CONTINUOUS
 62
    2
 10
132
 20
807
 11
140.69333243660159
 21
809.32937140592276
  0
LINE
  8
_0-0_
  6
CONTINUOUS
 62
    2
 10
132
 20
807
 11
140.69333243660159
 21
804.67062859407724
  0
LINE
  8
_0-0_
  6
CONTINUOUS
 62
    2
 10
582
 20
807
 11
573.30666756339838
 21
809.32937140592276
  0
LINE
  8
_0-0_
  6
CONTINUOUS
 62
    2
 10
582
 20
807
 11
573.30666756339838
 21
804.67062859407724
  0
LINE
  8
_0-0_
  6
CONTINUOUS
 62
    2
 10
132
 20
810
 11
132
 21
732
  0
LINE
  8
_0-0_
  6
CONTINUOUS
 62
    2
 10
582
 20
810
 11
582
 21
732
  0
LINE
  8
_0-0_
  6
CONTINUOUS
 62
    2
 10
132
 20
807
 11
582
 21
807
  0
TEXT
  8
_0-0_
 62
    7
 10
345
 20
808.5
 40
15
 41
1
 50
0
  1
450
  0
LINE
  8
_0-0_
  6
CONTINUOUS
 62
    2
 10
108
 20
450
 11
105.6706285940773
 21
458.69333243660162
  0
LINE
  8
_0-0_
  6
CONTINUOUS
 62
    2
 10
108
 20
450
 11
110.3293714059227
 21
458.69333243660162
  0
LINE
  8
_0-0_
  6
CONTINUOUS
 62
    2
 10
108
 20
708
 11
105.6706285940773
 21
699.30666756339838
  0
LINE
  8
_0-0_
  6
CONTINUOUS
 62
    2
 10
108
 20
708
 11
110.3293714059227
 21
699.30666756339838
  0
LINE
  8
_0-0_
  6
CONTINUOUS
 62
    2
 10
105
 20
450
 11
150
 21
450
  0
LINE
  8
_0-0_
  6
CONTINUOUS
 62
    2
 10
105
 20
708
 11
150
 21
708
  0
LINE
  8
_0-0_
  6
CONTINUOUS
 62
    2
 10
108
 20
450
 11
108
 21
708
  0
TEXT
  8
_0-0_
 62
    7
 10
106.5
 20
567
 40
15
 41
1
 50
90
  1
258
  0
LINE
  8
_0-0_
  6
CONTINUOUS
 62
    2
 10
84
 20
429
 11
81.6706285940773
 21
437.69333243660162
  0
LINE
  8
_0-0_
  6
CONTINUOUS
 62
    2
 10
84
 20
429
 11
86.3293714059227
 21
437.69333243660162
  0
LINE
  8
_0-0_
  6
CONTINUOUS
 62
    2
 10
84
 20
729
 11
81.6706285940773
 21
720.30666756339838
  0
LINE
  8
_0-0_
  6
CONTINUOUS
 62
    2
 10
84
 20
729
 11
86.3293714059227
 21
720.30666756339838
  0
LINE
  8
_0-0_
  6
CONTINUOUS
 62
    2
 10
81
 20
429
 11
129
 21
429
  0
LINE
  8
_0-0_
  6
CONTINUOUS
 62
    2
 10
81
 20
729
 11
129
 21
729
  0
LINE
  8
_0-0_
  6
CONTINUOUS
 62
    2
 10
84
 20
429
 11
84
 21
729
  0
TEXT
  8
_0-0_
 62
    7
 10
82.5
 20
567
 40
15
 41
1
 50
90
  1
300
  0
LINE
  8
_0-0_
  6
CONTINUOUS
 62
    2
 10
674.00004105019343
 20
807
 11
682.69337348679505
 21
809.32937140592276
  0
LINE
  8
_0-0_
  6
CONTINUOUS
 62
    2
 10
674.00004105019343
 20
807
 11
682.69337348679505
 21
804.67062859407724
  0
LINE
  8
_0-0_
  6
CONTINUOUS
 62
    2
 10
824.00004105019332
 20
807
 11
815.30670861359158
 21
809.32937140592276
  0
LINE
  8
_0-0_
  6
CONTINUOUS
 62
    2
 10
824.00004105019332
 20
807
 11
815.30670861359158
 21
804.67062859407724
  0
LINE
  8
_0-0_
  6
CONTINUOUS
 62
    2
 10
674.00004105019343
 20
810
 11
674.00004105019343
 21
732
  0
LINE
  8
_0-0_
  6
CONTINUOUS
 62
    2
 10
824.00004105019332
 20
810
 11
824.00004105019332
 21
715
  0
LINE
  8
_0-0_
  6
CONTINUOUS
 62
    2
 10
674.00004105019343
 20
807
 11
824.00004105019332
 21
807
  0
TEXT
  8
_0-0_
 62
    7
 10
737.00004105019343
 20
808.5
 40
15
 41
1
 50
0
  1
150
  0
LINE
  8
_0-0_
  6
CONTINUOUS
 62
    2
 10
867.50004110000009
 20
446.00000000000006
 11
865.17066969407722
 21
454.69333243660162
  0
LINE
  8
_0-0_
  6
CONTINUOUS
 62
    2
 10
867.50004110000009
 20
446.00000000000006
 11
869.82941250592262
 21
454.69333243660162
  0
LINE
  8
_0-0_
  6
CONTINUOUS
 62
    2
 10
867.50004110000009
 20
712
 11
865.17066969407722
 21
703.30666756339838
  0
LINE
  8
_0-0_
  6
CONTINUOUS
 62
    2
 10
867.50004110000009
 20
712
 11
869.82941250592262
 21
703.30666756339838
  0
LINE
  8
_0-0_
  6
CONTINUOUS
 62
    2
 10
870.50004110000009
 20
446.00000000000006
 11
828.50004105019332
 21
446.00000000000006
  0
LINE
  8
_0-0_
  6
CONTINUOUS
 62
    2
 10
870.50004110000009
 20
712
 11
828.50004105019332
 21
712
  0
LINE
  8
_0-0_
  6
CONTINUOUS
 62
    2
 10
867.50004110000009
 20
446.00000000000006
 11
867.50004110000009
 21
712
  0
TEXT
  8
_0-0_
 62
    7
 10
866.00004110000009
 20
567
 40
15
 41
1
 50
90
  1
266
  0
LINE
  8
_0-0_
  6
CONTINUOUS
 62
    2
 10
148.99999999999997
 20
143.49999680000002
 11
157.69333243660157
 21
145.82936820592272
  0
LINE
  8
_0-0_
  6
CONTINUOUS
 62
    2
 10
148.99999999999997
 20
143.49999680000002
 11
157.69333243660157
 21
141.17062539407732
  0
LINE
  8
_0-0_
  6
CONTINUOUS
 62
    2
 10
565
 20
143.49999680000002
 11
556.30666756339838
 21
145.82936820592272
  0
LINE
  8
_0-0_
  6
CONTINUOUS
 62
    2
 10
565
 20
143.49999680000002
 11
556.30666756339838
 21
141.17062539407732
  0
LINE
  8
_0-0_
  6
CONTINUOUS
 62
    2
 10
148.99999999999997
 20
140.49999680000002
 11
148.99999999999997
 21
182.49999675919528
  0
LINE
  8
_0-0_
  6
CONTINUOUS
 62
    2
 10
565
 20
140.49999680000002
 11
565
 21
182.49999675919528
  0
LINE
  8
_0-0_
  6
CONTINUOUS
 62
    2
 10
148.99999999999997
 20
143.49999680000002
 11
565
 21
143.49999680000002
  0
TEXT
  8
_0-0_
 62
    7
 10
344.99999999999994
 20
144.99999680000002
 40
15
 41
1
 50
0
  1
416
  0
LINE
  8
_0-1_
  6
CONTINUOUS
 62
    7
 10
562
 20
709
 11
151.99999999999997
 21
709
  0
LINE
  8
_0-1_
  6
CONTINUOUS
 62
    7
 10
151.99999999999997
 20
449.00000000000006
 11
151.99999999999997
 21
709
  0
LINE
  8
_0-1_
  6
CONTINUOUS
 62
    7
 10
562
 20
449.00000000000006
 11
562
 21
709
  0
LINE
  8
_0-1_
  6
CONTINUOUS
 62
    7
 10
562
 20
449.00000000000006
 11
151.99999999999997
 21
449.00000000000006
  0
LINE
  8
_0-7_
  6
DASHED2
 62
    4
 10
540.0000021605365
 20
480.00000415228112
 11
540.0000021605365
 21
470.00000448986492
  0
LINE
  8
_0-7_
  6
DASHED2
 62
    4
 10
174.99999945986582
 20
480.99998686798904
 11
174.99999945986582
 21
470.99998720557278
  0
LINE
  8
_0-9_
  6
CONTINUOUS
 62
    7
 10
783.28121657920099
 20
270.00037421223988
 11
783.28121657920099
 21
265.96874726613669
  0
LINE
  8
_0-9_
  6
CONTINUOUS
 62
    7
 10
791.71871252819506
 20
265.96874726613669
 11
791.71871252819506
 21
270.00037421223988
  0
LINE
  8
_0-9_
  6
CONTINUOUS
 62
    7
 10
784.21877126778122
 20
252.30207105710031
 11
787.21221147385324
 21
249.97381615484306
  0
LINE
  8
_0-9_
  6
CONTINUOUS
 62
    7
 10
787.78778852614676
 20
249.97381615484306
 11
790.78122873221878
 21
252.30207105710031
  0
LINE
  8
_0-9_
  6
CONTINUOUS
 62
    7
 10
783.28121657920099
 20
265.96874726613669
 11
784.21877126778122
 21
265.96874726613669
  0
LINE
  8
_0-9_
  6
CONTINUOUS
 62
    7
 10
784.21877126778122
 20
265.96874726613669
 11
784.21877126778122
 21
252.30207105710031
  0
LINE
  8
_0-9_
  6
CONTINUOUS
 62
    7
 10
791.71871252819506
 20
265.96874726613669
 11
790.78122873221878
 21
265.96874726613669
  0
LINE
  8
_0-9_
  6
CONTINUOUS
 62
    7
 10
790.78122873221878
 20
265.96874726613669
 11
790.78122873221878
 21
252.30207105710031
  0
ARC
  8
_0-9_
  6
CONTINUOUS
 62
    7
 10
796.40627329328436
 20
270.00037421223988
 40
4.6874998417575799
 50
127.23570251464845
 51
180.00001525878909
  0
ARC
  8
_0-9_
  6
CONTINUOUS
 62
    7
 10
778.59372670671587
 20
270.00037421223988
 40
4.6874998417575799
 50
0
 51
52.764251708984382
  0
ARC
  8
_0-9_
  6
CONTINUOUS
 62
    7
 10
787.49996455369785
 20
250.34384010168958
 40
0.4687499980219697
 50
232.12501525878909
 51
307.87496948242187
  0
CIRCLE
  8
_0-9_
  6
CONTINUOUS
 62
    7
 10
787.49996455369785
 20
285.28123956922525
 40
2.9062500569672709
  0
ARC
  8
_0-9_
  6
CONTINUOUS
 62
    7
 10
787.49996455369785
 20
281.71874443043254
 40
10.031250303825447
 50
307.2357177734375
 51
232.76426696777344
  0
TEXT
  8
_0-9_
 62
    7
 10
742.5
 20
306.74999473419535
 40
15
 41
1
 50
0
  1
９
  0
CIRCLE
  8
_0-9_
  6
CONTINUOUS
 62
    7
 10
750
 20
314.24999473419535
 40
9
  0
TEXT
  8
_0-9_
 62
    7
 10
761.7809203807484
 20
307.52530812756299
 40
12
 41
1
 50
0
  1
の鍵
  0
CIRCLE
  8
_0-9_
  6
CONTINUOUS
 62
    7
 10
470.99998649664673
 20
672
 40
11.350000432107301
  0
CIRCLE
  8
_0-9_
  6
CONTINUOUS
 62
    7
 10
470.99998649664673
 20
672
 40
9.9999996624161707
  0
CIRCLE
  8
_0-9_
  6
CONTINUOUS
 62
    7
 10
470.99998649664673
 20
672
 40
5.8999997535638045
  0
LINE
  8
_0-9_
  6
CONTINUOUS
 62
    7
 10
469.89996013810145
 20
667.68335249009033
 11
469.89996013810145
 21
677.18333952687135
  0
LINE
  8
_0-9_
  6
CONTINUOUS
 62
    7
 10
472.10001285519229
 20
667.68335249009033
 11
469.89996013810145
 21
667.68335249009033
  0
LINE
  8
_0-9_
  6
CONTINUOUS
 62
    7
 10
472.10001285519229
 20
677.18333952687135
 11
472.10001285519229
 21
667.68335249009033
  0
LINE
  8
_0-9_
  6
CONTINUOUS
 62
    7
 10
469.89996013810145
 20
677.18333952687135
 11
472.10001285519229
 21
677.18333952687135
  0
POINT
  8
_0-f_
 62
    9
 10
1170
 20
288
  0
POINT
  8
_0-f_
 62
    9
 10
1170
 20
306
  0
POINT
  8
_0-f_
 62
    9
 10
1170
 20
270
  0
POINT
  8
_0-f_
 62
    9
 10
1170
 20
252
  0
POINT
  8
_0-f_
 62
    9
 10
1170
 20
234
  0
POINT
  8
_0-f_
 62
    9
 10
1170
 20
216
  0
POINT
  8
_0-f_
 62
    9
 10
1170
 20
198
  0
POINT
  8
_0-f_
 62
    9
 10
1170
 20
180
  0
POINT
  8
_0-f_
 62
    9
 10
1170
 20
324
  0
TEXT
  8
_0-f_
 62
    7
 10
1158
 20
324
 40
12
 41
1
 50
0
  1
備考
  0
POINT
  8
_0-f_
 62
    9
 10
1104
 20
324
  0
POINT
  8
_0-f_
 62
    9
 10
1104
 20
306
  0
POINT
  8
_0-f_
 62
    9
 10
1104
 20
288
  0
POINT
  8
_0-f_
 62
    9
 10
1104
 20
270
  0
POINT
  8
_0-f_
 62
    9
 10
1104
 20
252
  0
POINT
  8
_0-f_
 62
    9
 10
1104
 20
234
  0
POINT
  8
_0-f_
 62
    9
 10
1104
 20
216
  0
POINT
  8
_0-f_
 62
    9
 10
1104
 20
198
  0
POINT
  8
_0-f_
 62
    9
 10
1104
 20
180
  0
POINT
  8
_0-f_
 62
    9
 10
978
 20
324
  0
POINT
  8
_0-f_
 62
    9
 10
978
 20
306
  0
POINT
  8
_0-f_
 62
    9
 10
978
 20
288
  0
POINT
  8
_0-f_
 62
    9
 10
1038
 20
324
  0
POINT
  8
_0-f_
 62
    9
 10
1038
 20
306
  0
POINT
  8
_0-f_
 62
    9
 10
1038
 20
288
  0
POINT
  8
_0-f_
 62
    9
 10
978
 20
270
  0
POINT
  8
_0-f_
 62
    9
 10
1038
 20
270
  0
POINT
  8
_0-f_
 62
    9
 10
978
 20
252
  0
POINT
  8
_0-f_
 62
    9
 10
1038
 20
252
  0
POINT
  8
_0-f_
 62
    9
 10
978
 20
234
  0
POINT
  8
_0-f_
 62
    9
 10
1038
 20
234
  0
POINT
  8
_0-f_
 62
    9
 10
978
 20
216
  0
POINT
  8
_0-f_
 62
    9
 10
1038
 20
216
  0
POINT
  8
_0-f_
 62
    9
 10
978
 20
198
  0
POINT
  8
_0-f_
 62
    9
 10
1038
 20
198
  0
POINT
  8
_0-f_
 62
    9
 10
978
 20
180
  0
POINT
  8
_0-f_
 62
    9
 10
1038
 20
180
  0
TEXT
  8
_0-f_
 62
    7
 10
966
 20
324
 40
12
 41
1
 50
0
  1
番号
  0
TEXT
  8
_0-f_
 62
    7
 10
1008
 20
324
 40
12
 41
1
 50
0
  1
部　材　名
  0
TEXT
  8
_0-f_
 62
    7
 10
972
 20
306
 40
12
 41
1
 50
0
  1
１
  0
TEXT
  8
_0-f_
 62
    7
 10
972
 20
288
 40
12
 41
1
 50
0
  1
２
  0
TEXT
  8
_0-f_
 62
    7
 10
972
 20
270
 40
12
 41
1
 50
0
  1
３
  0
TEXT
  8
_0-f_
 62
    7
 10
972
 20
252
 40
12
 41
1
 50
0
  1
４
  0
TEXT
  8
_0-f_
 62
    7
 10
972
 20
234
 40
12
 41
1
 50
0
  1
５
  0
TEXT
  8
_0-f_
 62
    7
 10
972
 20
216
 40
12
 41
1
 50
0
  1
６
  0
TEXT
  8
_0-f_
 62
    7
 10
972
 20
198
 40
12
 41
1
 50
0
  1
７
  0
TEXT
  8
_0-f_
 62
    7
 10
972
 20
180
 40
12
 41
1
 50
0
  1
８
  0
TEXT
  8
_0-f_
 62
    7
 10
1026
 20
306
 40
12
 41
1
 50
0
  1
本体
  0
TEXT
  8
_0-f_
 62
    7
 10
1032
 20
288
 40
12
 41
1
 50
0
  1
扉
  0
TEXT
  8
_0-f_
 62
    7
 10
1014
 20
270
 40
12
 41
1
 50
0
  1
埋込取手
  0
TEXT
  8
_0-f_
 62
    7
 10
996
 20
252
 40
12
 41
1
 50
0
  1
ボールキャッチ
  0
TEXT
  8
_0-f_
 62
    7
 10
1020
 20
234
 40
12
 41
1
 50
0
  1
クサリ
  0
TEXT
  8
_0-f_
 62
    7
 10
996
 20
216
 40
12
 41
1
 50
0
  1
クサリ止め金具
  0
TEXT
  8
_0-f_
 62
    7
 10
1008
 20
198
 40
12
 41
1
 50
0
  1
丸リベット
  0
TEXT
  8
_0-f_
 62
    7
 10
996
 20
180
 40
12
 41
1
 50
0
  1
皿ビス・ナット
  0
LINE
  8
_0-f_
  6
CONTINUOUS
 62
    7
 10
963
 20
339
 11
1215
 21
339
  0
LINE
  8
_0-f_
  6
CONTINUOUS
 62
    7
 10
963
 20
321
 11
1215
 21
321
  0
LINE
  8
_0-f_
  6
CONTINUOUS
 62
    7
 10
963
 20
303
 11
1215
 21
303
  0
LINE
  8
_0-f_
  6
CONTINUOUS
 62
    7
 10
963
 20
285
 11
1215
 21
285
  0
LINE
  8
_0-f_
  6
CONTINUOUS
 62
    7
 10
963
 20
267
 11
1215
 21
267
  0
LINE
  8
_0-f_
  6
CONTINUOUS
 62
    7
 10
963
 20
249
 11
1215
 21
249
  0
LINE
  8
_0-f_
  6
CONTINUOUS
 62
    7
 10
963
 20
231
 11
1215
 21
231
  0
LINE
  8
_0-f_
  6
CONTINUOUS
 62
    7
 10
963
 20
213
 11
1215
 21
213
  0
LINE
  8
_0-f_
  6
CONTINUOUS
 62
    7
 10
963
 20
195
 11
1215
 21
195
  0
LINE
  8
_0-f_
  6
CONTINUOUS
 62
    7
 10
963
 20
177
 11
1215
 21
177
  0
TEXT
  8
_0-f_
 62
    7
 10
1092
 20
324
 40
12
 41
1
 50
0
  1
材質
  0
TEXT
  8
_0-f_
 62
    7
 10
1086
 20
270
 40
12
 41
1
 50
0
  1
SUS304
  0
TEXT
  8
_0-f_
 62
    7
 10
1095
 20
252
 40
12
 41
1
 50
0
  1
ZDC
  0
TEXT
  8
_0-f_
 62
    7
 10
1086
 20
234
 40
12
 41
1
 50
0
  1
SUS304
  0
TEXT
  8
_0-f_
 62
    7
 10
1089
 20
216
 40
12
 41
1
 50
0
  1
SS400
  0
TEXT
  8
_0-f_
 62
    7
 10
1086
 20
198
 40
12
 41
1
 50
0
  1
SUS304
  0
TEXT
  8
_0-f_
 62
    7
 10
1086
 20
180
 40
12
 41
1
 50
0
  1
SUS304
  0
TEXT
  8
_0-f_
 62
    7
 10
1161
 20
234
 40
12
 41
1
 50
0
  1
φ3
  0
TEXT
  8
_0-f_
 62
    7
 10
1128
 20
216
 40
12
 41
1
 50
0
  1
ユニクロメッキ
  0
TEXT
  8
_0-f_
 62
    7
 10
1161
 20
198
 40
12
 41
1
 50
0
  1
φ6
  0
TEXT
  8
_0-f_
 62
    7
 10
1161
 20
180
 40
12
 41
1
 50
0
  1
Ｍ4
  0
TEXT
  8
_0-f_
 62
    7
 10
1032
 20
429
 40
12
 41
1
 50
0
  1
　　　別途加工できます
  0
TEXT
  8
_0-f_
 62
    7
 10
1032
 20
444
 40
12
 41
1
 50
0
  1
※１）取付穴・配管用穴は、
  0
TEXT
  8
_0-f_
 62
    7
 10
1032
 20
474
 40
12
 41
1
 50
0
  1
　４）裏板付
  0
TEXT
  8
_0-f_
 62
    7
 10
1032
 20
489
 40
12
 41
1
 50
0
  1
　３）扉 取外し可能
  0
TEXT
  8
_0-f_
 62
    7
 10
1032
 20
504
 40
12
 41
1
 50
0
  1
　２）保温マット付
  0
POINT
  8
_0-f_
 62
    9
 10
1032
 20
519
  0
POINT
  8
_0-f_
 62
    9
 10
1032
 20
504
  0
POINT
  8
_0-f_
 62
    9
 10
1032
 20
489
  0
POINT
  8
_0-f_
 62
    9
 10
1032
 20
474
  0
POINT
  8
_0-f_
 62
    9
 10
1032
 20
444
  0
POINT
  8
_0-f_
 62
    9
 10
1032
 20
429
  0
TEXT
  8
_0-f_
 62
    7
 10
1032
 20
519
 40
12
 41
1
 50
0
  1
注１）ヘアーライン仕上げ
  0
TEXT
  8
_0-f_
 62
    7
 10
1086
 20
288
 40
12
 41
1
 50
0
  1
SUS304
  0
TEXT
  8
_0-f_
 62
    7
 10
1086
 20
306
 40
12
 41
1
 50
0
  1
SUS304
  0
TEXT
  8
_0-f_
 62
    7
 10
1149
 20
306
 40
12
 41
1
 50
0
  1
t1.5-HL
  0
TEXT
  8
_0-f_
 62
    7
 10
1149
 20
288
 40
12
 41
1
 50
0
  1
t1.5-HL
  0
POINT
  8
_0-f_
 62
    9
 10
1170
 20
162
  0
POINT
  8
_0-f_
 62
    9
 10
1104
 20
162
  0
POINT
  8
_0-f_
 62
    9
 10
978
 20
162
  0
POINT
  8
_0-f_
 62
    9
 10
1038
 20
162
  0
LINE
  8
_0-f_
  6
CONTINUOUS
 62
    7
 10
963
 20
159
 11
1215
 21
159
  0
LINE
  8
_0-f_
  6
CONTINUOUS
 62
    7
 10
963
 20
159
 11
963
 21
339
  0
LINE
  8
_0-f_
  6
CONTINUOUS
 62
    7
 10
993
 20
159
 11
993
 21
339
  0
LINE
  8
_0-f_
  6
CONTINUOUS
 62
    7
 10
1083
 20
159
 11
1083
 21
339
  0
LINE
  8
_0-f_
  6
CONTINUOUS
 62
    7
 10
1125
 20
159
 11
1125
 21
339
  0
LINE
  8
_0-f_
  6
CONTINUOUS
 62
    7
 10
1215
 20
159
 11
1215
 21
339
  0
TEXT
  8
_0-f_
 62
    7
 10
972
 20
162
 40
12
 41
1
 50
0
  1
９
  0
TEXT
  8
_0-f_
 62
    7
 10
1002
 20
162
 40
12
 41
1
 50
0
  1
カムロックＳ
  0
TEXT
  8
_0-f_
 62
    7
 10
1095
 20
162
 40
12
 41
1
 50
0
  1
ZDC
  0
LINE
  8
_0-f_
  6
CONTINUOUS
 62
    7
 10
476.67498671270033
 20
681.8293887071693
 11
479.00435811862303
 21
690.52272114377081
  0
LINE
  8
_0-f_
  6
CONTINUOUS
 62
    7
 10
476.67498671270033
 20
681.8293887071693
 11
483.03894774337931
 21
688.19334973784817
  0
CIRCLE
  8
_0-9_
  6
CONTINUOUS
 62
    7
 10
521.22945991614415
 20
759
 40
9
  0
TEXT
  8
_0-9_
 62
    7
 10
513.72945991614415
 20
751.5
 40
15
 41
1
 50
0
  1
９
  0
LINE
  8
_0-f_
  6
CONTINUOUS
 62
    7
 10
476.67498671270033
 20
681.8293887071693
 11
516.72945991614415
 21
751.20577136594011
  0
ARC
  8
_0-1_
  6
CONTINUOUS
 62
    7
 10
822.50004105019332
 20
449.00000000000006
 40
1.5
 50
270
 51
0
  0
ARC
  8
_0-1_
  6
CONTINUOUS
 62
    7
 10
822.50004105019332
 20
709
 40
1.5
 50
0
 51
90
  0
TEXT
  8
_0-f_
 62
    7
 10
856.5
 20
58.5
 40
10.5
 41
1
 50
0
  1
2005.10.22.-8-3
  0
TEXT
  8
_0-f_
 62
    7
 10
1164
 20
85.5
 40
10.5
 41
1
 50
0
  1
FREE
  0
TEXT
  8
_0-f_
 62
    7
 10
957
 20
58.5
 40
13.5
 41
0.7777777777777777
 50
0
  1
ステンレス製メーターボックス（壁用・埋込型・鍵付）
  0
TEXT
  8
_0-f_
 62
    7
 10
957
 20
31.5
 40
13.5
 41
1
 50
0
  1
ＳＢ７０－１Ｋ
  0
ENDSEC
  0
EOF
