  0
SECTION
  2
HEADER
  9
$ACADVER
  1
AC1009
  9
$INSBASE
 10
0
 20
0
 30
0
  9
$EXTMIN
 10
0
 20
0
  9
$EXTMAX
 10
1260
 20
891
  9
$LIMMIN
 10
0
 20
0
  9
$LIMMAX
 10
1260
 20
891
  9
$LTSCALE
 40
3
  0
ENDSEC
  0
SECTION
  2
TABLES
  0
TABLE
  2
LTYPE
 70
     9
  0
LTYPE
  2
CONTINUOUS
 70
    64
  3
実線
 72
    65
 73
     0
 40
0.0
  0
LTYPE
  2
DASHED1
 70
    64
  3
--  --  --  --  --  --  --  --  
 72
    65
 73
     2
 40
2.5
 49
1.25
 49
-1.25
  0
LTYPE
  2
DASHED2
 70
    64
  3
----    ----    ----    ----    
 72
    65
 73
     2
 40
5.0
 49
2.5
 49
-2.5
  0
LTYPE
  2
DASHED3
 70
    64
  3
------  ------  ------  ------  
 72
    65
 73
     2
 40
5.0
 49
3.75
 49
-1.25
  0
LTYPE
  2
CENTER1
 70
    64
  3
----- - ----- - ----- - ----- - 
 72
    65
 73
     4
 40
10.0
 49
6.25
 49
-1.25
 49
1.25
 49
-1.25
  0
LTYPE
  2
CENTER2
 70
    64
  3
----------  --  ----------  --  
 72
    65
 73
     4
 40
20.0
 49
12.5
 49
-2.5
 49
2.5
 49
-2.5
  0
LTYPE
  2
PHANTOM1
 70
    64
  3
--- - - --- - - --- - - --- - - 
 72
    65
 73
     6
 40
10.0
 49
3.25
 49
-1.25
 49
1.25
 49
-1.25
 49
1.25
 49
-1.25
  0
LTYPE
  2
PHANTOM2
 70
    64
  3
--------  -  -  --------  -  -  
 72
    65
 73
     6
 40
20.0
 49
10.0
 49
-2.5
 49
1.25
 49
-2.5
 49
1.25
 49
-2.5
  0
LTYPE
  2
DOT
 70
    64
  3
-   -   -   -   -   -   -   -   
 72
    65
 73
     2
 40
2.5
 49
0.625
 49
-1.875
  0
LTYPE
  2
DUMMY
 70
    64
  3
ダミー
 72
    65
 73
     0
 40
0.0
  0
LTYPE
  2
RAND1
 70
    64
  3
ランダム線1
 72
    65
 73
     4
 40
10.0
 49
1.0
 49
-2.0
 49
3.0
 49
-4.0
  0
LTYPE
  2
RAND2
 70
    64
  3
ランダム線2
 72
    65
 73
     4
 40
14.0
 49
2.0
 49
-3.0
 49
4.0
 49
-5.0
  0
LTYPE
  2
RAND3
 70
    64
  3
ランダム線3
 72
    65
 73
     4
 40
18.0
 49
3.0
 49
-4.0
 49
5.0
 49
-6.0
  0
LTYPE
  2
RAND4
 70
    64
  3
ランダム線4
 72
    65
 73
     4
 40
22.0
 49
4.0
 49
-5.0
 49
6.0
 49
-7.0
  0
LTYPE
  2
RAND5
 70
    64
  3
ランダム線5
 72
    65
 73
     4
 40
26.0
 49
5.0
 49
-6.0
 49
7.0
 49
-8.0
  0
LTYPE
  2
LONG1
 70
    64
  3
----------  --  ----------  --  
 72
    65
 73
     4
 40
40.0
 49
32.5
 49
-2.5
 49
2.5
 49
-2.5
  0
LTYPE
  2
LONG2
 70
    64
  3
--------  -  -  --------  -  -  
 72
    65
 73
     6
 40
40.0
 49
30.0
 49
-2.5
 49
1.25
 49
-2.5
 49
1.25
 49
-2.5
  0
LTYPE
  2
LONG3
 70
    64
  3
+++++++++++++++..+++++++++++++++
 72
    65
 73
     2
 40
40.0
 49
37.5
 49
-2.5
  0
LTYPE
  2
LONG4
 70
    64
  3
+++++++++++++++..+++++++++++++++
 72
    65
 73
     2
 40
80.0
 49
75.0
 49
-5.0
  0
LTYPE
  2
LONG5
 70
    64
  3
----------  --  ----------  --  
 72
    65
 73
     4
 40
60.0
 49
37.5
 49
-7.5
 49
7.5
 49
-7.5
  0
LTYPE
  2
dashed
 70
   64
  3
-------   -------------   ------
 72
   65
 73
    2
 40
7.5
 49
6
 49
-1.5
  0
LTYPE
  2
dashed_spaced
 70
   64
  3
----        --------        ----
 72
   65
 73
    2
 40
12
 49
6
 49
-6
  0
LTYPE
  2
long_dashed_dotted
 70
   64
  3
------------- --- --------------
 72
   65
 73
    4
 40
15.25
 49
12
 49
-1.5
 49
0.25
 49
-1.5
  0
LTYPE
  2
long_dashed_double-dotted
 70
   64
  3
----------- --- --- ------------
 72
   65
 73
    6
 40
17
 49
12
 49
-1.5
 49
0.25
 49
-1.5
 49
0.25
 49
-1.5
  0
LTYPE
  2
long_dashed_triplicate-dotted
 70
   64
  3
--------- --- --- --- ----------
 72
   65
 73
    8
 40
18.75
 49
12
 49
-1.5
 49
0.25
 49
-1.5
 49
0.25
 49
-1.5
 49
0.25
 49
-1.5
  0
LTYPE
  2
dotted
 70
   64
  3
   -       -       -       -    
 72
   65
 73
    2
 40
1.75
 49
0.25
 49
-1.5
  0
LTYPE
  2
chain
 70
   64
  3
-------------- -- --------------
 72
   65
 73
    4
 40
18.5
 49
12
 49
-1.5
 49
3.5
 49
-1.5
  0
LTYPE
  2
chain_double_dash
 70
   64
  3
------------ -- -- -------------
 72
   65
 73
    6
 40
23.5
 49
12
 49
-1.5
 49
3.5
 49
-1.5
 49
3.5
 49
-1.5
  0
LTYPE
  2
dashed_dotted
 70
   64
  3
-----------     -     ----------
 72
   65
 73
    4
 40
9.25
 49
6
 49
-1.5
 49
0.25
 49
-1.5
  0
LTYPE
  2
double-dashed_dotted
 70
   64
  3
------   -----------   -   -----
 72
   65
 73
    6
 40
16.75
 49
6
 49
-1.5
 49
6
 49
-1.5
 49
0.25
 49
-1.5
  0
LTYPE
  2
dashed_double-dotted
 70
   64
  3
---------    -    -    ---------
 72
   65
 73
    6
 40
11
 49
6
 49
-1.5
 49
0.25
 49
-1.5
 49
0.25
 49
-1.5
  0
LTYPE
  2
double-dashed_double-dotted
 70
   64
  3
-----   ---------   -   -   ----
 72
   65
 73
    8
 40
18.5
 49
6
 49
-1.5
 49
6
 49
-1.5
 49
0.25
 49
-1.5
 49
0.25
 49
-1.5
  0
LTYPE
  2
dashed_triplicate-dotted
 70
   64
  3
-------    -    -    -    ------
 72
   65
 73
    8
 40
12.75
 49
6
 49
-1.5
 49
0.25
 49
-1.5
 49
0.25
 49
-1.5
 49
0.25
 49
-1.5
  0
LTYPE
  2
double-dashed_triplicate-dotted
 70
   64
  3
-----  ---------  -  -  -  -----
 72
   65
 73
   10
 40
20.25
 49
6
 49
-1.5
 49
6
 49
-1.5
 49
0.25
 49
-1.5
 49
0.25
 49
-1.5
 49
0.25
 49
-1.5
  0
LTYPE
  2
undefined
 70
   64
  3
--------------------------------
 72
   65
 73
    0
 40
0
  0
LTYPE
  2
_
 70
   64
  3
                                
 72
   65
 73
    0
 40
0
  0
LTYPE
  2
__18
 70
   64
  3
                                
 72
   65
 73
    0
 40
0
  0
LTYPE
  2
__19
 70
   64
  3
                                
 72
   65
 73
    0
 40
0
  0
LTYPE
  2
__20
 70
   64
  3
                                
 72
   65
 73
    0
 40
0
  0
LTYPE
  2
__21
 70
   64
  3
                                
 72
   65
 73
    0
 40
0
  0
LTYPE
  2
__22
 70
   64
  3
                                
 72
   65
 73
    0
 40
0
  0
LTYPE
  2
__23
 70
   64
  3
                                
 72
   65
 73
    0
 40
0
  0
LTYPE
  2
__24
 70
   64
  3
                                
 72
   65
 73
    0
 40
0
  0
LTYPE
  2
__25
 70
   64
  3
                                
 72
   65
 73
    0
 40
0
  0
LTYPE
  2
__26
 70
   64
  3
                                
 72
   65
 73
    0
 40
0
  0
LTYPE
  2
__27
 70
   64
  3
                                
 72
   65
 73
    0
 40
0
  0
LTYPE
  2
__28
 70
   64
  3
                                
 72
   65
 73
    0
 40
0
  0
LTYPE
  2
__29
 70
   64
  3
                                
 72
   65
 73
    0
 40
0
  0
LTYPE
  2
__30
 70
   64
  3
                                
 72
   65
 73
    0
 40
0
  0
LTYPE
  2
__31
 70
   64
  3
                                
 72
   65
 73
    0
 40
0
  0
LTYPE
  2
__32
 70
   64
  3
                                
 72
   65
 73
    0
 40
0
  0
ENDTAB
  0
TABLE
  2
STYLE
  5
3
100
AcDbSymbolTable
 70
     1
  0
STYLE
  5
10
100
AcDbSymbolTableRecord
100
AcDbTextStyleTableRecord
  2
STANDARD
 70
     0
 40
0.0
 41
1.0
 50
0.0
 71
     0
 42
0.2
  3
txt
  4
bigfont.shx
  0
STYLE
  5
26
100
AcDbSymbolTableRecord
100
AcDbTextStyleTableRecord
  2
TATEGAKI
 70
    68
 40
0.0
 41
1.0
 50
0.0
 71
     0
 42
1.0
  3
txt
  4
bigfont.shx
  0
ENDTAB
  0
TABLE
  2
LAYER
 70
   16
  0
LAYER
  2
_0-0_
 70
   64
 62
    7
  6
CONTINUOUS
  0
LAYER
  2
_0-1_
 70
   64
 62
    7
  6
CONTINUOUS
  0
LAYER
  2
_0-2_
 70
   64
 62
    7
  6
CONTINUOUS
  0
LAYER
  2
_0-3_
 70
   64
 62
    7
  6
CONTINUOUS
  0
LAYER
  2
_0-5_
 70
   64
 62
    7
  6
CONTINUOUS
  0
LAYER
  2
_0-6_
 70
   64
 62
    7
  6
CONTINUOUS
  0
LAYER
  2
_0-7_
 70
   64
 62
    7
  6
CONTINUOUS
  0
LAYER
  2
_0-8_
 70
   64
 62
    7
  6
CONTINUOUS
  0
LAYER
  2
_0-f_
 70
   64
 62
    7
  6
CONTINUOUS
  0
LAYER
  2
_1-0_
 70
   64
 62
    7
  6
CONTINUOUS
  0
LAYER
  2
_1-1_
 70
   64
 62
    7
  6
CONTINUOUS
  0
LAYER
  2
_1-2_
 70
   64
 62
    7
  6
CONTINUOUS
  0
LAYER
  2
_1-3_
 70
   64
 62
    7
  6
CONTINUOUS
  0
LAYER
  2
_1-4_
 70
   64
 62
    7
  6
CONTINUOUS
  0
LAYER
  2
_1-8_
 70
   64
 62
    7
  6
CONTINUOUS
  0
LAYER
  2
ADD_LINE
 70
   64
 62
    7
  6
CONTINUOUS
  0
ENDTAB
  0
ENDSEC
  0
SECTION
  2
BLOCKS
  0
ENDSEC
  0
SECTION
  2
ENTITIES
  0
TEXT
  8
_0-f_
 62
    7
 10
921.75
 20
241.5
 40
10.5
 41
1
 50
0
  1
８
  0
TEXT
  8
_0-f_
 62
    7
 10
958.5
 20
120
 40
7.5
 41
1
 50
0
  1
　　　　　　　　　　　　　　　　　　　Ｗ　　　　Ｈ　　　　Ｄ
  0
LINE
  8
_0-f_
  6
CONTINUOUS
 62
    7
 10
915
 20
84
 11
1215
 21
84
  0
LINE
  8
_0-f_
  6
CONTINUOUS
 62
    7
 10
915
 20
60
 11
1215
 21
60
  0
TEXT
  8
_0-f_
 62
    7
 10
919.5
 20
88.5
 40
15
 41
1
 50
0
  1
品名
  0
POINT
  8
_0-f_
 62
    9
 10
945
 20
33
  0
POINT
  8
_0-f_
 62
    9
 10
919.5
 20
88.5
  0
POINT
  8
_0-f_
 62
    9
 10
958.5
 20
88.5
  0
LINE
  8
_0-f_
  6
CONTINUOUS
 62
    7
 10
915
 20
84
 11
1215
 21
84
  0
POINT
  8
_0-f_
 62
    9
 10
916.5
 20
76.5
  0
POINT
  8
_0-f_
 62
    9
 10
1185
 20
64.5
  0
POINT
  8
_0-f_
 62
    9
 10
1156.5
 20
76.5
  0
POINT
  8
_0-f_
 62
    9
 10
1125
 20
64.5
  0
POINT
  8
_0-f_
 62
    9
 10
1096.5
 20
76.5
  0
POINT
  8
_0-f_
 62
    9
 10
945
 20
64.5
  0
POINT
  8
_0-f_
 62
    9
 10
976.5
 20
76.5
  0
POINT
  8
_0-f_
 62
    9
 10
1005
 20
64.5
  0
LINE
  8
_0-f_
  6
CONTINUOUS
 62
    7
 10
1155
 20
84
 11
1155
 21
60
  0
LINE
  8
_0-f_
  6
CONTINUOUS
 62
    7
 10
1095
 20
84
 11
1095
 21
60
  0
LINE
  8
_0-f_
  6
CONTINUOUS
 62
    7
 10
975
 20
84
 11
975
 21
60
  0
LINE
  8
_0-f_
  6
CONTINUOUS
 62
    7
 10
1035
 20
84
 11
1035
 21
60
  0
LINE
  8
_0-f_
  6
CONTINUOUS
 62
    7
 10
1068
 20
75.75
 11
1086
 21
79.5
  0
LINE
  8
_0-f_
  6
CONTINUOUS
 62
    7
 10
1068
 20
75.75
 11
1068
 21
68.25
  0
LINE
  8
_0-f_
  6
CONTINUOUS
 62
    7
 10
1068
 20
68.25
 11
1086
 21
64.5
  0
LINE
  8
_0-f_
  6
CONTINUOUS
 62
    7
 10
1086
 20
79.5
 11
1086
 21
64.5
  0
CIRCLE
  8
_0-f_
  6
CONTINUOUS
 62
    7
 10
1051.5
 20
72
 40
7.5
  0
CIRCLE
  8
_0-f_
  6
CONTINUOUS
 62
    7
 10
1051.5
 20
72
 40
3.75
  0
TEXT
  8
_0-f_
 62
    7
 10
1156.5
 20
76.5
 40
6
 41
1
 50
0
  1
作成
  0
TEXT
  8
_0-f_
 62
    7
 10
1096.5
 20
76.5
 40
6
 41
1
 50
0
  1
縮尺
  0
TEXT
  8
_0-f_
 62
    7
 10
994.5
 20
64.5
 40
10.5
 41
1
 50
0
  1
玉置
  0
TEXT
  8
_0-f_
 62
    7
 10
976.5
 20
76.5
 40
6
 41
1
 50
0
  1
製図
  0
TEXT
  8
_0-f_
 62
    7
 10
916.5
 20
76.5
 40
6
 41
1
 50
0
  1
担当
  0
LINE
  8
_0-f_
  6
CONTINUOUS
 62
    3
 10
45
 20
30
 11
45
 21
861
  0
LINE
  8
_0-f_
  6
CONTINUOUS
 62
    3
 10
45
 20
30
 11
1215
 21
30
  0
LINE
  8
_0-f_
  6
CONTINUOUS
 62
    3
 10
1215
 20
861
 11
1215
 21
30
  0
LINE
  8
_0-f_
  6
CONTINUOUS
 62
    3
 10
1215
 20
861
 11
45
 21
861
  0
TEXT
  8
_0-f_
 62
    3
 10
969
 20
33
 40
24
 41
1
 50
0
  1
株式会社　アウス
  0
LINE
  8
_0-f_
  6
CONTINUOUS
 62
    7
 10
915
 20
108
 11
1215
 21
108
  0
POINT
  8
_0-f_
 62
    9
 10
919.5
 20
112.5
  0
POINT
  8
_0-f_
 62
    9
 10
958.5
 20
112.5
  0
LINE
  8
_0-f_
  6
CONTINUOUS
 62
    7
 10
915
 20
108
 11
1215
 21
108
  0
TEXT
  8
_0-f_
 62
    7
 10
919.5
 20
112.5
 40
15
 41
1
 50
0
  1
品番
  0
TEXT
  8
_0-f_
 62
    7
 10
958.5
 20
88.5
 40
15
 41
0.8599999999999999
 50
0
  1
ステンレス製 壁用 埋込 メーターボックス
  0
POINT
  8
_0-f_
 62
    9
 10
958.5
 20
120
  0
TEXT
  8
_0-f_
 62
    7
 10
921.75
 20
147
 40
10.5
 41
1
 50
0
  1
１
  0
LINE
  8
_0-f_
  6
CONTINUOUS
 62
    7
 10
915
 20
132
 11
1215
 21
132
  0
LINE
  8
_0-f_
  6
CONTINUOUS
 62
    7
 10
915
 20
145.5
 11
1215
 21
145.5
  0
LINE
  8
_0-f_
  6
CONTINUOUS
 62
    7
 10
915
 20
159
 11
1215
 21
159
  0
LINE
  8
_0-f_
  6
CONTINUOUS
 62
    7
 10
915
 20
172.5
 11
1215
 21
172.5
  0
LINE
  8
_0-f_
  6
CONTINUOUS
 62
    7
 10
915
 20
186
 11
1215
 21
186
  0
LINE
  8
ADD_LINE
  6
DOT
 62
    9
 10
1026
 20
172.5
 11
1029
 21
172.5
  0
LINE
  8
ADD_LINE
  6
DOT
 62
    9
 10
1027.5
 20
174
 11
1027.5
 21
171
  0
LINE
  8
ADD_LINE
  6
DOT
 62
    9
 10
1026
 20
159
 11
1029
 21
159
  0
LINE
  8
ADD_LINE
  6
DOT
 62
    9
 10
1027.5
 20
160.5
 11
1027.5
 21
157.5
  0
TEXT
  8
_0-f_
 62
    7
 10
921.75
 20
174
 40
10.5
 41
1
 50
0
  1
３
  0
TEXT
  8
_0-f_
 62
    7
 10
921.75
 20
160.5
 40
10.5
 41
1
 50
0
  1
２
  0
TEXT
  8
_0-f_
 62
    7
 10
1029.75
 20
147
 40
10.5
 41
1
 50
0
  1
SUS304
  0
TEXT
  8
_0-f_
 62
    7
 10
1070.25
 20
147
 40
10.5
 41
1
 50
0
  1
１
  0
TEXT
  8
_0-f_
 62
    7
 10
916.5
 20
133.5
 40
10.5
 41
1
 50
0
  1
符号
  0
TEXT
  8
_0-f_
 62
    7
 10
1065
 20
133.5
 40
10.5
 41
1
 50
0
  1
数量
  0
TEXT
  8
_0-f_
 62
    7
 10
941.25
 20
133.5
 40
10.5
 41
1
 50
0
  1
名称
  0
TEXT
  8
_0-f_
 62
    7
 10
1029.75
 20
133.5
 40
10.5
 41
1
 50
0
  1
材質
  0
TEXT
  8
_0-f_
 62
    7
 10
1089.75
 20
133.5
 40
10.5
 41
1
 50
0
  1
備考
  0
POINT
  8
_0-f_
 62
    9
 10
916.5
 20
133.5
  0
POINT
  8
_0-f_
 62
    9
 10
941.25
 20
133.5
  0
POINT
  8
_0-f_
 62
    9
 10
921.75
 20
147
  0
POINT
  8
_0-f_
 62
    9
 10
921.75
 20
160.5
  0
POINT
  8
_0-f_
 62
    9
 10
921.75
 20
174
  0
POINT
  8
_0-f_
 62
    9
 10
941.25
 20
174
  0
POINT
  8
_0-f_
 62
    9
 10
941.25
 20
160.5
  0
POINT
  8
_0-f_
 62
    9
 10
941.25
 20
147
  0
POINT
  8
_0-f_
 62
    9
 10
1029.75
 20
174
  0
POINT
  8
_0-f_
 62
    9
 10
1029.75
 20
160.5
  0
POINT
  8
_0-f_
 62
    9
 10
1029.75
 20
147
  0
POINT
  8
_0-f_
 62
    9
 10
1029.75
 20
133.5
  0
POINT
  8
_0-f_
 62
    9
 10
1065
 20
133.5
  0
POINT
  8
_0-f_
 62
    9
 10
1070.25
 20
147
  0
POINT
  8
_0-f_
 62
    9
 10
1070.25
 20
160.5
  0
POINT
  8
_0-f_
 62
    9
 10
1070.25
 20
174
  0
POINT
  8
_0-f_
 62
    9
 10
1089.75
 20
174
  0
POINT
  8
_0-f_
 62
    9
 10
1089.75
 20
160.5
  0
POINT
  8
_0-f_
 62
    9
 10
1089.75
 20
147
  0
POINT
  8
_0-f_
 62
    9
 10
1089.75
 20
133.5
  0
LINE
  8
_0-f_
  6
CONTINUOUS
 62
    7
 10
915
 20
199.5
 11
1215
 21
199.5
  0
LINE
  8
ADD_LINE
  6
DOT
 62
    9
 10
1026
 20
186
 11
1029
 21
186
  0
LINE
  8
ADD_LINE
  6
DOT
 62
    9
 10
1027.5
 20
187.5
 11
1027.5
 21
184.5
  0
POINT
  8
_0-f_
 62
    9
 10
921.75
 20
187.5
  0
POINT
  8
_0-f_
 62
    9
 10
941.25
 20
187.5
  0
POINT
  8
_0-f_
 62
    9
 10
1029.75
 20
187.5
  0
POINT
  8
_0-f_
 62
    9
 10
1070.25
 20
187.5
  0
POINT
  8
_0-f_
 62
    9
 10
1089.75
 20
187.5
  0
LINE
  8
_0-f_
  6
CONTINUOUS
 62
    7
 10
915
 20
213
 11
1215
 21
213
  0
LINE
  8
ADD_LINE
  6
DOT
 62
    9
 10
1026
 20
199.5
 11
1029
 21
199.5
  0
LINE
  8
ADD_LINE
  6
DOT
 62
    9
 10
1027.5
 20
201
 11
1027.5
 21
198
  0
POINT
  8
_0-f_
 62
    9
 10
921.75
 20
201
  0
POINT
  8
_0-f_
 62
    9
 10
941.25
 20
201
  0
POINT
  8
_0-f_
 62
    9
 10
1029.75
 20
201
  0
POINT
  8
_0-f_
 62
    9
 10
1070.25
 20
201
  0
POINT
  8
_0-f_
 62
    9
 10
1089.75
 20
201
  0
LINE
  8
_0-f_
  6
CONTINUOUS
 62
    7
 10
915
 20
226.5
 11
1215
 21
226.5
  0
LINE
  8
ADD_LINE
  6
DOT
 62
    9
 10
1026
 20
213
 11
1029
 21
213
  0
LINE
  8
ADD_LINE
  6
DOT
 62
    9
 10
1027.5
 20
214.5
 11
1027.5
 21
211.5
  0
POINT
  8
_0-f_
 62
    9
 10
921.75
 20
214.5
  0
POINT
  8
_0-f_
 62
    9
 10
941.25
 20
214.5
  0
POINT
  8
_0-f_
 62
    9
 10
1029.75
 20
214.5
  0
POINT
  8
_0-f_
 62
    9
 10
1070.25
 20
214.5
  0
POINT
  8
_0-f_
 62
    9
 10
1089.75
 20
214.5
  0
LINE
  8
_0-f_
  6
CONTINUOUS
 62
    7
 10
915
 20
240
 11
1215
 21
240
  0
LINE
  8
ADD_LINE
  6
DOT
 62
    9
 10
1026
 20
226.5
 11
1029
 21
226.5
  0
LINE
  8
ADD_LINE
  6
DOT
 62
    9
 10
1027.5
 20
228
 11
1027.5
 21
225
  0
POINT
  8
_0-f_
 62
    9
 10
921.75
 20
228
  0
POINT
  8
_0-f_
 62
    9
 10
941.25
 20
228
  0
POINT
  8
_0-f_
 62
    9
 10
1029.75
 20
228
  0
POINT
  8
_0-f_
 62
    9
 10
1070.25
 20
228
  0
POINT
  8
_0-f_
 62
    9
 10
1089.75
 20
228
  0
LINE
  8
_0-f_
  6
CONTINUOUS
 62
    7
 10
915
 20
253.5
 11
1215
 21
253.5
  0
LINE
  8
ADD_LINE
  6
DOT
 62
    9
 10
1026
 20
240
 11
1029
 21
240
  0
LINE
  8
ADD_LINE
  6
DOT
 62
    9
 10
1027.5
 20
241.5
 11
1027.5
 21
238.5
  0
POINT
  8
_0-f_
 62
    9
 10
921.75
 20
241.5
  0
POINT
  8
_0-f_
 62
    9
 10
941.25
 20
241.5
  0
POINT
  8
_0-f_
 62
    9
 10
1029.75
 20
241.5
  0
POINT
  8
_0-f_
 62
    9
 10
1070.25
 20
241.5
  0
POINT
  8
_0-f_
 62
    9
 10
1089.75
 20
241.5
  0
TEXT
  8
_0-f_
 62
    7
 10
921.75
 20
187.5
 40
10.5
 41
1
 50
0
  1
４
  0
TEXT
  8
_0-f_
 62
    7
 10
921.75
 20
201
 40
10.5
 41
1
 50
0
  1
５
  0
TEXT
  8
_0-f_
 62
    7
 10
921.75
 20
214.5
 40
10.5
 41
1
 50
0
  1
６
  0
TEXT
  8
_0-f_
 62
    7
 10
921.75
 20
228
 40
10.5
 41
1
 50
0
  1
７
  0
TEXT
  8
_0-f_
 62
    7
 10
941.25
 20
147
 40
10.5
 41
1
 50
0
  1
本体
  0
TEXT
  8
_0-f_
 62
    7
 10
941.25
 20
160.5
 40
10.5
 41
1
 50
0
  1
　扉
  0
TEXT
  8
_0-f_
 62
    7
 10
941.25
 20
201
 40
10.5
 41
1
 50
0
  1
　鎖
  0
TEXT
  8
_0-f_
 62
    7
 10
941.25
 20
174
 40
10.5
 41
1
 50
0
  1
埋込取手
  0
TEXT
  8
_0-f_
 62
    7
 10
941.25
 20
214.5
 40
10.5
 41
1
 50
0
  1
鎖止め金具
  0
TEXT
  8
_0-f_
 62
    7
 10
941.25
 20
228
 40
10.5
 41
1
 50
0
  1
丸リベット
  0
TEXT
  8
_0-f_
 62
    7
 10
941.25
 20
187.5
 40
10.5
 41
1
 50
0
  1
ボールキャッチ
  0
TEXT
  8
_0-f_
 62
    7
 10
1029.75
 20
160.5
 40
10.5
 41
1
 50
0
  1
SUS304
  0
TEXT
  8
_0-f_
 62
    7
 10
1029.75
 20
174
 40
10.5
 41
1
 50
0
  1
SUS304
  0
TEXT
  8
_0-f_
 62
    7
 10
1029.75
 20
201
 40
10.5
 41
1
 50
0
  1
SUS304
  0
TEXT
  8
_0-f_
 62
    7
 10
1029.75
 20
228
 40
10.5
 41
1
 50
0
  1
SUS304
  0
TEXT
  8
_0-f_
 62
    7
 10
1029.75
 20
241.5
 40
10.5
 41
1
 50
0
  1
SUS304
  0
TEXT
  8
_0-f_
 62
    7
 10
1029.75
 20
214.5
 40
10.5
 41
1
 50
0
  1
SS400
  0
TEXT
  8
_0-f_
 62
    7
 10
1029.75
 20
187.5
 40
10.5
 41
1
 50
0
  1
ZDC
  0
TEXT
  8
_0-f_
 62
    7
 10
1070.25
 20
160.5
 40
10.5
 41
1
 50
0
  1
１
  0
TEXT
  8
_0-f_
 62
    7
 10
1070.25
 20
174
 40
10.5
 41
1
 50
0
  1
１
  0
TEXT
  8
_0-f_
 62
    7
 10
1070.25
 20
187.5
 40
10.5
 41
1
 50
0
  1
１
  0
TEXT
  8
_0-f_
 62
    7
 10
1070.25
 20
201
 40
10.5
 41
1
 50
0
  1
１
  0
TEXT
  8
_0-f_
 62
    7
 10
1070.25
 20
214.5
 40
10.5
 41
1
 50
0
  1
１
  0
TEXT
  8
_0-f_
 62
    7
 10
1070.25
 20
241.5
 40
10.5
 41
1
 50
0
  1
８
  0
TEXT
  8
_0-f_
 62
    7
 10
1070.25
 20
228
 40
10.5
 41
1
 50
0
  1
２
  0
TEXT
  8
_0-f_
 62
    7
 10
1089.75
 20
147
 40
10.5
 41
1
 50
0
  1
ｔ1.5　表面ﾍｱｰﾗｲﾝ仕上げ
  0
TEXT
  8
_0-f_
 62
    7
 10
1089.75
 20
160.5
 40
10.5
 41
1
 50
0
  1
ｔ1.5　　　ﾍｱｰﾗｲﾝ仕上げ
  0
TEXT
  8
_0-f_
 62
    7
 10
1089.75
 20
201
 40
10.5
 41
1
 50
0
  1
φ3
  0
TEXT
  8
_0-f_
 62
    7
 10
1089.75
 20
228
 40
10.5
 41
1
 50
0
  1
φ6
  0
TEXT
  8
_0-f_
 62
    7
 10
1089.75
 20
241.5
 40
10.5
 41
1
 50
0
  1
Ｍ4
  0
TEXT
  8
_0-f_
 62
    7
 10
1089.75
 20
214.5
 40
10.5
 41
1
 50
0
  1
　　　　　　　　ﾕﾆｸﾛﾒｯｷ
  0
TEXT
  8
_0-f_
 62
    7
 10
941.25
 20
241.5
 40
10.5
 41
1
 50
0
  1
ビス・ナット
  0
TEXT
  8
_0-f_
 62
    7
 10
1260
 20
172.5
 40
10.5
 41
1
 50
0
  1
ﾀｷｹﾞﾝ A-1181-1
  0
TEXT
  8
_0-f_
 62
    7
 10
1260
 20
186
 40
10.5
 41
1
 50
0
  1
ﾀｷｹﾞﾝ C-90-0
  0
ARC
  8
_1-1_
  6
CONTINUOUS
 62
    7
 10
1172.2672173829205
 20
773.26297294144092
 40
3.7499998734060638
 50
126.86985778808592
 51
233.13009643554687
  0
ARC
  8
_1-1_
  6
CONTINUOUS
 62
    7
 10
1167.7670683059016
 20
779.26286923568864
 40
3.7501500771108978
 50
306.54759216308594
 51
53.128936767578125
  0
LINE
  8
_1-1_
  6
CONTINUOUS
 62
    7
 10
1116.0002679740433
 20
637.94634631671738
 11
1116.0002679740433
 21
457.94633821470552
  0
ARC
  8
_1-2_
  6
CONTINUOUS
 62
    7
 10
1060.5130237815652
 20
693.16363147296738
 40
3.7501500771108978
 50
216.54760742187503
 51
323.12893676757812
  0
ARC
  8
_1-2_
  6
CONTINUOUS
 62
    7
 10
1054.5130140591509
 20
688.66348239594856
 40
3.7499998734060638
 50
36.869888305664055
 51
143.130126953125
  0
ARC
  8
_1-2_
  6
CONTINUOUS
 62
    7
 10
1061.2501934355337
 20
644.50884631671738
 40
14.062499746812126
 50
36.869888305664055
 51
143.130126953125
  0
ARC
  8
_1-2_
  6
CONTINUOUS
 62
    7
 10
1083.750258251629
 20
661.38383821470552
 40
14.062499746812126
 50
216.86990356445312
 51
323.13008117675781
  0
ARC
  8
_1-2_
  6
CONTINUOUS
 62
    7
 10
1061.2501934355337
 20
434.50884631671738
 40
14.062499746812126
 50
36.869888305664055
 51
143.130126953125
  0
ARC
  8
_1-2_
  6
CONTINUOUS
 62
    7
 10
1083.750258251629
 20
451.38383821470552
 40
14.062499746812126
 50
216.86990356445312
 51
323.13008117675781
  0
LINE
  8
_1-2_
  6
CONTINUOUS
 62
    7
 10
1057.500258251629
 20
658.06209435927133
 11
1057.500258251629
 21
448.04887997787608
  0
LINE
  8
_1-2_
  6
CONTINUOUS
 62
    7
 10
1087.5001934355337
 20
647.83053345806832
 11
1087.5001934355337
 21
437.87692557815956
  0
LINE
  8
_1-3_
  6
CONTINUOUS
 62
    7
 10
1054.5001966763384
 20
752.25017824426163
 11
1054.5001966763384
 21
692.43048851890899
  0
LINE
  8
_1-3_
  6
CONTINUOUS
 62
    7
 10
1057.500258251629
 20
755.25012639138549
 11
1054.5001966763384
 21
752.25017824426163
  0
LINE
  8
_1-3_
  6
CONTINUOUS
 62
    7
 10
1054.5001966763384
 20
656.84540713149886
 11
1054.5001966763384
 21
446.91865337000485
  0
LINE
  8
_1-4_
  6
CONTINUOUS
 62
    7
 10
1116.0002679740433
 20
756.75015717903068
 11
1096.5002647332385
 21
756.75015717903068
  0
LINE
  8
_1-4_
  6
CONTINUOUS
 62
    7
 10
1096.5002647332385
 20
741.00014583621396
 11
1096.5002647332385
 21
756.75015717903068
  0
LINE
  8
_1-4_
  6
CONTINUOUS
 62
    7
 10
1116.0002679740433
 20
750.75014745661633
 11
1096.5002647332385
 21
750.75014745661633
  0
LINE
  8
_1-4_
  6
CONTINUOUS
 62
    7
 10
1116.0002679740433
 20
741.00014583621396
 11
1116.0002679740433
 21
756.75015717903068
  0
ARC
  8
_1-4_
  6
CONTINUOUS
 62
    7
 10
1106.2502096395576
 20
741.00014583621396
 40
9.7499998480872758
 50
179.99995422363281
 51
0
  0
CIRCLE
  8
_1-4_
  6
CONTINUOUS
 62
    7
 10
1106.2308134230891
 20
740.9833584675747
 40
8.2500000759563612
  0
ARC
  8
_1-4_
  6
CONTINUOUS
 62
    7
 10
1106.2502096395576
 20
741.00014583621396
 40
6.7499998607466694
 50
186.37931823730469
 51
353.62060546875
  0
LINE
  8
_1-4_
  6
CONTINUOUS
 62
    7
 10
1112.9584648334874
 20
740.25015879943305
 11
1099.5420678737944
 21
740.25015879943305
  0
LINE
  8
_1-4_
  6
CONTINUOUS
 62
    7
 10
1112.9584648334874
 20
741.75013287299498
 11
1099.5420678737944
 21
741.75013287299498
  0
ARC
  8
_1-4_
  6
CONTINUOUS
 62
    7
 10
1106.2308134230891
 20
740.9833584675747
 40
6.7499998607466694
 50
6.5403594970703134
 51
173.46009826660156
  0
LINE
  8
_1-4_
  6
CONTINUOUS
 62
    7
 10
1087.5001934355337
 20
733.5001620402378
 11
1100.0202810236838
 21
733.5001620402378
  0
LINE
  8
_1-4_
  6
CONTINUOUS
 62
    7
 10
1096.5002647332385
 20
733.5001620402378
 11
1096.5002647332385
 21
748.50012963219024
  0
LINE
  8
_1-4_
  6
CONTINUOUS
 62
    7
 10
1093.5002031579479
 20
748.50012963219024
 11
1093.5002031579479
 21
733.5001620402378
  0
LINE
  8
_1-4_
  6
CONTINUOUS
 62
    7
 10
1087.5001934355337
 20
733.5001620402378
 11
1087.5001934355337
 21
748.50012963219024
  0
LINE
  8
_1-4_
  6
CONTINUOUS
 62
    7
 10
1087.5001934355337
 20
748.50012963219024
 11
1096.5002647332385
 21
748.50012963219024
  0
ARC
  8
_1-4_
  6
CONTINUOUS
 62
    7
 10
1115.2502809372622
 20
599.6963268718888
 40
0.7499999968351515
 50
0
 51
89.999969482421875
  0
LINE
  8
_1-4_
  6
CONTINUOUS
 62
    7
 10
1096.5002647332385
 20
557.09786852271156
 11
1096.5002647332385
 21
599.6963268718888
  0
ARC
  8
_1-4_
  6
CONTINUOUS
 62
    7
 10
1097.2502517700193
 20
599.6963268718888
 40
0.7499999968351515
 50
89.999969482421875
 51
180.00001525878906
  0
LINE
  8
_1-4_
  6
CONTINUOUS
 62
    7
 10
1097.2502517700193
 20
600.44631390866982
 11
1115.2502809372622
 21
600.44631390866982
  0
LINE
  8
_1-4_
  6
CONTINUOUS
 62
    7
 10
1116.0002679740433
 20
585.44634631671738
 11
1096.5002647332385
 21
585.44634631671738
  0
LINE
  8
_1-4_
  6
CONTINUOUS
 62
    7
 10
1116.0002679740433
 20
558.44635927993636
 11
1096.5002647332385
 21
558.44635927993636
  0
ARC
  8
_1-4_
  6
CONTINUOUS
 62
    7
 10
1106.2502096395576
 20
559.9463333534984
 40
5.2500000886157547
 50
196.60151672363281
 51
343.39846801757812
  0
LINE
  8
_1-4_
  6
CONTINUOUS
 62
    7
 10
1116.0002679740433
 20
537.44632525148643
 11
1116.0002679740433
 21
558.44635927993636
  0
ARC
  8
_1-4_
  6
CONTINUOUS
 62
    7
 10
1106.2502096395576
 20
535.9463511779245
 40
5.2500000886157547
 50
16.6015625
 51
163.39845275878906
  0
LINE
  8
_1-4_
  6
CONTINUOUS
 62
    7
 10
1096.5002647332385
 20
537.44632525148643
 11
1116.0002679740433
 21
537.44632525148643
  0
LINE
  8
_1-4_
  6
CONTINUOUS
 62
    7
 10
1096.5002647332385
 20
496.19635765953404
 11
1096.5002647332385
 21
538.79481600871134
  0
LINE
  8
_1-4_
  6
CONTINUOUS
 62
    7
 10
1096.5002647332385
 20
510.44633821470552
 11
1116.0002679740433
 21
510.44633821470552
  0
LINE
  8
_1-4_
  6
CONTINUOUS
 62
    7
 10
1115.2502809372622
 20
495.44631390866982
 11
1097.2502517700193
 21
495.44631390866982
  0
ARC
  8
_1-4_
  6
CONTINUOUS
 62
    7
 10
1097.2502517700193
 20
496.19635765953404
 40
0.7499999968351515
 50
180.00001525878906
 51
270
  0
ARC
  8
_1-4_
  6
CONTINUOUS
 62
    7
 10
1115.2502809372622
 20
496.19635765953404
 40
0.7499999968351515
 50
270
 51
0
  0
ARC
  8
_1-4_
  6
CONTINUOUS
 62
    7
 10
1111.5002323251908
 20
550.94631876987694
 40
4.5000002025502974
 50
0
 51
118.93989562988283
  0
ARC
  8
_1-4_
  6
CONTINUOUS
 62
    7
 10
1111.5002323251908
 20
544.94636576154585
 40
4.5000002025502974
 50
241.02981567382812
 51
0
  0
ARC
  8
_1-4_
  6
CONTINUOUS
 62
    7
 10
1104.0002485292146
 20
531.44631552907219
 40
10.500000177231509
 50
89.999969482421875
 51
180.00001525878906
  0
LINE
  8
_1-4_
  6
CONTINUOUS
 62
    7
 10
1105.6907819224671
 20
553.94632363108406
 11
1104.0002485292146
 21
553.94632363108406
  0
ARC
  8
_1-4_
  6
CONTINUOUS
 62
    7
 10
1105.6907819224671
 20
561.44636414114348
 40
7.4999997468121276
 50
270
 51
298.96409606933594
  0
ARC
  8
_1-4_
  6
CONTINUOUS
 62
    7
 10
1105.6907819224671
 20
534.44632039027931
 40
7.4999997468121276
 50
61.054031372070313
 51
89.999969482421875
  0
LINE
  8
_1-4_
  6
CONTINUOUS
 62
    7
 10
1105.6907819224671
 20
541.94636090033873
 11
1104.0002485292146
 21
541.94636090033873
  0
ARC
  8
_1-4_
  6
CONTINUOUS
 62
    7
 10
1104.0002485292146
 20
564.44631228826745
 40
10.500000177231509
 50
180.00001525878906
 51
270
  0
LINE
  8
_1-4_
  6
CONTINUOUS
 62
    7
 10
1093.5002031579479
 20
578.69634955752213
 11
1093.5002031579479
 21
564.44631228826745
  0
ARC
  8
_1-4_
  6
CONTINUOUS
 62
    7
 10
1092.7502161211671
 20
578.69634955752213
 40
0.7499999968351515
 50
0
 51
89.999969482421875
  0
LINE
  8
_1-4_
  6
CONTINUOUS
 62
    7
 10
1092.7502161211671
 20
579.44633659430315
 11
1088.2502939004812
 21
579.44633659430315
  0
ARC
  8
_1-4_
  6
CONTINUOUS
 62
    7
 10
1088.2502939004812
 20
578.69634955752213
 40
0.7499999968351515
 50
89.999969482421875
 51
180.00001525878906
  0
LINE
  8
_1-4_
  6
CONTINUOUS
 62
    7
 10
1087.5001934355337
 20
517.19633497390078
 11
1087.5001934355337
 21
578.69634955752213
  0
ARC
  8
_1-4_
  6
CONTINUOUS
 62
    7
 10
1088.2502939004812
 20
517.19633497390078
 40
0.7499999968351515
 50
180.00001525878906
 51
270
  0
LINE
  8
_1-4_
  6
CONTINUOUS
 62
    7
 10
1092.7502161211671
 20
516.44634793711975
 11
1088.2502939004812
 21
516.44634793711975
  0
ARC
  8
_1-4_
  6
CONTINUOUS
 62
    7
 10
1092.7502161211671
 20
517.19633497390078
 40
0.7499999968351515
 50
270
 51
0
  0
LINE
  8
_1-4_
  6
CONTINUOUS
 62
    7
 10
1093.5002031579479
 20
517.19633497390078
 11
1093.5002031579479
 21
531.44631552907219
  0
LINE
  8
_1-8_
  6
CONTINUOUS
 62
    7
 10
1107.0001966763384
 20
596.69632201068168
 11
1105.5002226027766
 21
596.69632201068168
  0
LINE
  8
_1-8_
  6
CONTINUOUS
 62
    7
 10
1102.5002744556527
 20
593.69631714947457
 11
1102.5002744556527
 21
592.19634307591264
  0
LINE
  8
_1-8_
  6
CONTINUOUS
 62
    7
 10
1105.5002226027766
 20
589.19633821470552
 11
1107.0001966763384
 21
589.19633821470552
  0
LINE
  8
_1-8_
  6
CONTINUOUS
 62
    7
 10
1110.000258251629
 20
592.19634307591264
 11
1110.000258251629
 21
593.69631714947457
  0
LINE
  8
_1-8_
  6
CONTINUOUS
 62
    7
 10
1107.0001966763384
 20
595.19634793711975
 11
1107.0001966763384
 21
596.69632201068168
  0
LINE
  8
_1-8_
  6
CONTINUOUS
 62
    7
 10
1108.500284178067
 20
593.69631714947457
 11
1110.000258251629
 21
593.69631714947457
  0
LINE
  8
_1-8_
  6
CONTINUOUS
 62
    7
 10
1108.500284178067
 20
592.19634307591264
 11
1110.000258251629
 21
592.19634307591264
  0
LINE
  8
_1-8_
  6
CONTINUOUS
 62
    7
 10
1107.0001966763384
 20
590.69631228826745
 11
1107.0001966763384
 21
589.19633821470552
  0
LINE
  8
_1-8_
  6
CONTINUOUS
 62
    7
 10
1105.5002226027766
 20
590.69631228826745
 11
1105.5002226027766
 21
589.19633821470552
  0
LINE
  8
_1-8_
  6
CONTINUOUS
 62
    7
 10
1104.0002485292146
 20
592.19634307591264
 11
1102.5002744556527
 21
592.19634307591264
  0
LINE
  8
_1-8_
  6
CONTINUOUS
 62
    7
 10
1104.0002485292146
 20
593.69631714947457
 11
1102.5002744556527
 21
593.69631714947457
  0
LINE
  8
_1-8_
  6
CONTINUOUS
 62
    7
 10
1105.5002226027766
 20
595.19634793711975
 11
1105.5002226027766
 21
596.69632201068168
  0
LINE
  8
_1-8_
  6
CONTINUOUS
 62
    7
 10
1107.0001966763384
 20
506.69634631671738
 11
1105.5002226027766
 21
506.69634631671738
  0
LINE
  8
_1-8_
  6
CONTINUOUS
 62
    7
 10
1102.5002744556527
 20
503.69634145551026
 11
1102.5002744556527
 21
502.19631066786508
  0
LINE
  8
_1-8_
  6
CONTINUOUS
 62
    7
 10
1105.5002226027766
 20
499.19636252074116
 11
1107.0001966763384
 21
499.19636252074116
  0
LINE
  8
_1-8_
  6
CONTINUOUS
 62
    7
 10
1110.000258251629
 20
502.19631066786508
 11
1110.000258251629
 21
503.69634145551026
  0
LINE
  8
_1-8_
  6
CONTINUOUS
 62
    7
 10
1107.0001966763384
 20
505.19631552907219
 11
1107.0001966763384
 21
506.69634631671738
  0
LINE
  8
_1-8_
  6
CONTINUOUS
 62
    7
 10
1108.500284178067
 20
503.69634145551026
 11
1110.000258251629
 21
503.69634145551026
  0
LINE
  8
_1-8_
  6
CONTINUOUS
 62
    7
 10
1108.500284178067
 20
502.19631066786508
 11
1110.000258251629
 21
502.19631066786508
  0
LINE
  8
_1-8_
  6
CONTINUOUS
 62
    7
 10
1107.0001966763384
 20
500.69633659430315
 11
1107.0001966763384
 21
499.19636252074116
  0
LINE
  8
_1-8_
  6
CONTINUOUS
 62
    7
 10
1105.5002226027766
 20
500.69633659430315
 11
1105.5002226027766
 21
499.19636252074116
  0
LINE
  8
_1-8_
  6
CONTINUOUS
 62
    7
 10
1104.0002485292146
 20
502.19631066786508
 11
1102.5002744556527
 21
502.19631066786508
  0
LINE
  8
_1-8_
  6
CONTINUOUS
 62
    7
 10
1104.0002485292146
 20
503.69634145551026
 11
1102.5002744556527
 21
503.69634145551026
  0
LINE
  8
_1-8_
  6
CONTINUOUS
 62
    7
 10
1105.5002226027766
 20
505.19631552907219
 11
1105.5002226027766
 21
506.69634631671738
  0
LINE
  8
_1-8_
  6
CONTINUOUS
 62
    7
 10
1109.250271214848
 20
765.75017176265203
 11
1103.2502614924338
 21
765.75017176265203
  0
LINE
  8
_1-8_
  6
CONTINUOUS
 62
    7
 10
1078.5002355659956
 20
744.00015069742119
 11
1078.5002355659956
 21
738.00014097500684
  0
LINE
  8
_1-8_
  6
CONTINUOUS
 62
    7
 10
1078.5002355659956
 20
573.4463268718888
 11
1078.5002355659956
 21
567.44631714947457
  0
LINE
  8
_1-8_
  6
CONTINUOUS
 62
    7
 10
1078.5002355659956
 20
528.44631066786508
 11
1078.5002355659956
 21
522.44630094545073
  0
CIRCLE
  8
_1-8_
  6
CONTINUOUS
 62
    7
 10
1106.2502096395576
 20
592.94633011269354
 40
5.999999974681212
  0
ARC
  8
_1-8_
  6
CONTINUOUS
 62
    7
 10
1108.500284178067
 20
595.19634793711975
 40
1.499999993670303
 50
180.00001525878906
 51
270
  0
ARC
  8
_1-8_
  6
CONTINUOUS
 62
    7
 10
1108.500284178067
 20
590.69631228826745
 40
1.499999993670303
 50
89.999969482421875
 51
180.00001525878906
  0
ARC
  8
_1-8_
  6
CONTINUOUS
 62
    7
 10
1104.0002485292146
 20
590.69631228826745
 40
1.499999993670303
 50
0
 51
89.999969482421875
  0
ARC
  8
_1-8_
  6
CONTINUOUS
 62
    7
 10
1104.0002485292146
 20
595.19634793711975
 40
1.499999993670303
 50
270
 51
0
  0
CIRCLE
  8
_1-8_
  6
CONTINUOUS
 62
    7
 10
1106.2502096395576
 20
592.94633011269354
 40
5.999999974681212
  0
ARC
  8
_1-8_
  6
CONTINUOUS
 62
    7
 10
1108.500284178067
 20
505.19631552907219
 40
1.499999993670303
 50
180.00001525878906
 51
270
  0
ARC
  8
_1-8_
  6
CONTINUOUS
 62
    7
 10
1108.500284178067
 20
500.69633659430315
 40
1.499999993670303
 50
89.999969482421875
 51
180.00001525878906
  0
ARC
  8
_1-8_
  6
CONTINUOUS
 62
    7
 10
1104.0002485292146
 20
500.69633659430315
 40
1.499999993670303
 50
0
 51
89.999969482421875
  0
ARC
  8
_1-8_
  6
CONTINUOUS
 62
    7
 10
1104.0002485292146
 20
505.19631552907219
 40
1.499999993670303
 50
270
 51
0
  0
CIRCLE
  8
_1-8_
  6
CONTINUOUS
 62
    7
 10
1106.2502096395576
 20
502.9463544187293
 40
5.999999974681212
  0
LINE
  8
_1-8_
  6
DASHED2
 62
    4
 10
1100.2501999171432
 20
750.75014745661633
 11
1112.2502193619719
 21
750.75014745661633
  0
LINE
  8
_1-8_
  6
DASHED2
 62
    4
 10
1101.4502699185259
 20
750.75014745661633
 11
1111.0502627887556
 21
750.75014745661633
  0
LINE
  8
_1-8_
  6
DASHED2
 62
    4
 10
1100.2501999171432
 20
750.75014745661633
 11
1112.2502193619719
 21
750.75014745661633
  0
LINE
  8
_1-8_
  6
DASHED2
 62
    4
 10
1112.2502193619719
 20
750.75014745661633
 11
1112.2502193619719
 21
751.20017370713492
  0
LINE
  8
_1-8_
  6
DASHED2
 62
    4
 10
1100.2501999171432
 20
750.75014745661633
 11
1100.2501999171432
 21
751.20017370713492
  0
LINE
  8
_1-8_
  6
DASHED2
 62
    4
 10
1112.2502193619719
 20
751.20017370713492
 11
1100.2501999171432
 21
751.20011699305178
  0
LINE
  8
_1-8_
  6
DASHED2
 62
    4
 10
1112.2502193619719
 20
751.20017370713492
 11
1109.250271214848
 21
754.20017856834215
  0
LINE
  8
_1-8_
  6
DASHED2
 62
    4
 10
1100.2501999171432
 20
751.20017370713492
 11
1103.2502614924338
 21
754.20017856834215
  0
LINE
  8
_1-8_
  6
DASHED2
 62
    4
 10
1090.0502854743891
 20
744.00015069742119
 11
1093.0502336215129
 21
747.00015555862831
  0
LINE
  8
_1-8_
  6
DASHED2
 62
    4
 10
1093.5002031579479
 20
747.00015555862831
 11
1093.0502336215129
 21
747.00015555862831
  0
LINE
  8
_1-8_
  6
DASHED2
 62
    4
 10
1093.5002031579479
 20
735.00013611379973
 11
1093.5002031579479
 21
747.00015555862831
  0
LINE
  8
_1-8_
  6
DASHED2
 62
    4
 10
1093.0502336215129
 20
747.00015555862831
 11
1093.0502336215129
 21
735.00013611379973
  0
LINE
  8
_1-8_
  6
DASHED2
 62
    4
 10
1090.0502854743891
 20
738.00014097500684
 11
1093.0502336215129
 21
735.00013611379973
  0
LINE
  8
_1-8_
  6
DASHED2
 62
    4
 10
1093.5002031579479
 20
735.00013611379973
 11
1093.0502336215129
 21
735.00013611379973
  0
LINE
  8
_1-8_
  6
DASHED2
 62
    4
 10
1090.0502854743891
 20
573.4463268718888
 11
1093.0502336215129
 21
576.44633173309603
  0
LINE
  8
_1-8_
  6
DASHED2
 62
    4
 10
1093.5002031579479
 20
576.44633173309603
 11
1093.0502336215129
 21
576.44633173309603
  0
LINE
  8
_1-8_
  6
DASHED2
 62
    4
 10
1093.5002031579479
 20
564.44631228826745
 11
1093.5002031579479
 21
576.44633173309603
  0
LINE
  8
_1-8_
  6
DASHED2
 62
    4
 10
1093.0502336215129
 20
576.44633173309603
 11
1093.0502336215129
 21
564.44631228826745
  0
LINE
  8
_1-8_
  6
DASHED2
 62
    4
 10
1093.5002031579479
 20
564.44631228826745
 11
1093.0502336215129
 21
564.44631228826745
  0
LINE
  8
_1-8_
  6
DASHED2
 62
    4
 10
1090.0502854743891
 20
567.44631714947457
 11
1093.0502336215129
 21
564.44631228826745
  0
LINE
  8
_1-8_
  6
DASHED2
 62
    4
 10
1090.0502854743891
 20
528.44631066786508
 11
1093.0502336215129
 21
531.44631552907219
  0
LINE
  8
_1-8_
  6
DASHED2
 62
    4
 10
1093.5002031579479
 20
531.44631552907219
 11
1093.0502336215129
 21
531.44631552907219
  0
LINE
  8
_1-8_
  6
DASHED2
 62
    4
 10
1093.0502336215129
 20
531.44631552907219
 11
1093.0502336215129
 21
519.44635279832687
  0
LINE
  8
_1-8_
  6
DASHED2
 62
    4
 10
1093.5002031579479
 20
519.44635279832687
 11
1093.5002031579479
 21
531.44631552907219
  0
LINE
  8
_1-8_
  6
DASHED2
 62
    4
 10
1093.5002031579479
 20
519.44635279832687
 11
1093.0502336215129
 21
519.44635279832687
  0
LINE
  8
_1-8_
  6
DASHED2
 62
    4
 10
1090.0502854743891
 20
522.44630094545073
 11
1093.0502336215129
 21
519.44635279832687
  0
LINE
  8
_1-0_
  6
CONTINUOUS
 62
    7
 10
1114.4586657633822
 20
735.40377024422708
 11
1120.8226267940611
 21
729.0398092135481
  0
LINE
  8
_1-0_
  6
CONTINUOUS
 62
    7
 10
1114.4586657633822
 20
735.40377024422708
 11
1116.788037169305
 21
726.71043780762545
  0
CIRCLE
  8
_1-0_
  6
CONTINUOUS
 62
    7
 10
1133.2383024421906
 20
702.87648536884672
 40
9
  0
TEXT
  8
_1-0_
 62
    7
 10
1125.7383024421906
 20
695.37648536884672
 40
15
 41
1
 50
0
  1
４
  0
LINE
  8
_1-0_
  6
CONTINUOUS
 62
    7
 10
1114.4586657633822
 20
735.40377024422708
 11
1128.7383024421906
 21
710.67071400290672
  0
TEXT
  8
_1-0_
 62
    7
 10
1071.9961267656981
 20
670.50354544040374
 40
15
 41
1
 50
0
  1
B-B 断面図
  0
LINE
  8
_1-0_
  6
CONTINUOUS
 62
    7
 10
1071.1171939384142
 20
669.00354544040374
 11
1146.6627314208977
 21
669.00354544040374
  0
LINE
  8
_0-f_
  6
CONTINUOUS
 62
    7
 10
954
 20
132
 11
954
 21
84
  0
TEXT
  8
_0-f_
 62
    7
 10
1106.625
 20
64.5
 40
10.5
 41
1
 50
0
  1
1/3,1/2
  0
LINE
  8
_0-2_
  6
CONTINUOUS
 62
    7
 10
168
 20
474
 11
168
 21
732
  0
LINE
  8
_0-0_
  6
CONTINUOUS
 62
    7
 10
166.99999999999997
 20
473
 11
166.99999999999997
 21
733
  0
LINE
  8
_0-1_
  6
CONTINUOUS
 62
    7
 10
147
 20
453
 11
147
 21
753
  0
LINE
  8
_0-1_
  6
CONTINUOUS
 62
    7
 10
597
 20
453
 11
147
 21
453
  0
LINE
  8
_0-0_
  6
CONTINUOUS
 62
    7
 10
577
 20
473
 11
166.99999999999997
 21
473
  0
LINE
  8
_0-2_
  6
CONTINUOUS
 62
    7
 10
576
 20
474
 11
168
 21
474
  0
LINE
  8
_0-2_
  6
CONTINUOUS
 62
    7
 10
576
 20
474
 11
576
 21
732
  0
LINE
  8
_0-2_
  6
CONTINUOUS
 62
    7
 10
576
 20
732
 11
168
 21
732
  0
LINE
  8
_0-0_
  6
CONTINUOUS
 62
    7
 10
577
 20
733
 11
166.99999999999997
 21
733
  0
LINE
  8
_0-0_
  6
CONTINUOUS
 62
    7
 10
577
 20
473
 11
577
 21
733
  0
LINE
  8
_0-1_
  6
CONTINUOUS
 62
    7
 10
597
 20
453
 11
597
 21
753
  0
LINE
  8
_0-1_
  6
CONTINUOUS
 62
    7
 10
597
 20
753
 11
147
 21
753
  0
LINE
  8
_0-3_
  6
CONTINUOUS
 62
    7
 10
436.99998649664678
 20
718.9999978394635
 11
436.99998649664678
 21
634.00003024751106
  0
LINE
  8
_0-3_
  6
CONTINUOUS
 62
    7
 10
307.00000270067062
 20
634.00003024751106
 11
436.99998649664678
 21
634.00003024751106
  0
ARC
  8
_0-3_
  6
CONTINUOUS
 62
    7
 10
412.49999405852446
 20
658.99997623409854
 40
4.9999998312080853
 50
270
 51
0
  0
LINE
  8
_0-3_
  6
CONTINUOUS
 62
    7
 10
331.49999513879277
 20
653.99998703678102
 11
412.49999405852446
 21
653.99998703678102
  0
LINE
  8
_0-3_
  6
CONTINUOUS
 62
    7
 10
417.49998325584204
 20
684.99998055517153
 11
417.49998325584204
 21
658.99997623409854
  0
ARC
  8
_0-3_
  6
CONTINUOUS
 62
    7
 10
412.49999405852446
 20
684.99998055517153
 40
4.9999998312080853
 50
0
 51
89.999969482421875
  0
LINE
  8
_0-3_
  6
CONTINUOUS
 62
    7
 10
331.49999513879277
 20
689.99996975248882
 11
412.49999405852446
 21
689.99996975248882
  0
ARC
  8
_0-3_
  6
CONTINUOUS
 62
    7
 10
331.49999513879277
 20
684.99998055517153
 40
4.9999998312080853
 50
89.999969482421875
 51
180.00001525878903
  0
LINE
  8
_0-3_
  6
CONTINUOUS
 62
    7
 10
326.50000594147537
 20
684.99998055517153
 11
326.50000594147537
 21
658.99997623409854
  0
ARC
  8
_0-3_
  6
CONTINUOUS
 62
    7
 10
331.49999513879277
 20
658.99997623409854
 40
4.9999998312080853
 50
180.00001525878906
 51
270
  0
LINE
  8
_0-3_
  6
CONTINUOUS
 62
    7
 10
307.00000270067062
 20
718.9999978394635
 11
307.00000270067062
 21
634.00003024751106
  0
LINE
  8
_0-3_
  6
CONTINUOUS
 62
    7
 10
436.99998649664678
 20
718.9999978394635
 11
307.00000270067062
 21
718.9999978394635
  0
LINE
  8
_0-1_
  6
CONTINUOUS
 62
    7
 10
597
 20
348.99999675919526
 11
147
 21
348.99999675919526
  0
LINE
  8
_0-1_
  6
CONTINUOUS
 62
    7
 10
178.99999999999997
 20
348.99999675919526
 11
178.99999999999997
 21
209.49999675919526
  0
LINE
  8
_0-1_
  6
CONTINUOUS
 62
    7
 10
165.49999999999997
 20
209.49999675919526
 11
178.99999999999997
 21
209.49999675919526
  0
LINE
  8
_0-1_
  6
CONTINUOUS
 62
    7
 10
163.99999999999997
 20
210.99999675919526
 11
163.99999999999997
 21
348.99999675919526
  0
ARC
  8
_0-1_
  6
CONTINUOUS
 62
    7
 10
165.49999999999997
 20
210.99999675919526
 40
1.5
 50
180
 51
270
  0
LINE
  8
_0-1_
  6
CONTINUOUS
 62
    7
 10
580
 20
210.99999675919526
 11
163.99999999999989
 21
210.99999675919526
  0
LINE
  8
_0-1_
  6
CONTINUOUS
 62
    7
 10
580
 20
210.99999675919526
 11
580
 21
348.99999675919526
  0
ARC
  8
_0-1_
  6
CONTINUOUS
 62
    7
 10
578.5
 20
210.99999675919526
 40
1.5
 50
270
 51
0
  0
LINE
  8
_0-1_
  6
CONTINUOUS
 62
    7
 10
578.5
 20
209.49999675919526
 11
565
 21
209.49999675919526
  0
LINE
  8
_0-1_
  6
CONTINUOUS
 62
    7
 10
565
 20
348.99999675919526
 11
565
 21
209.49999675919526
  0
LINE
  8
_0-1_
  6
CONTINUOUS
 62
    7
 10
576.83012781733964
 20
233.50000810201186
 11
568.16988730641594
 21
228.50001890469434
  0
LINE
  8
_0-1_
  6
CONTINUOUS
 62
    7
 10
572.50004537126665
 20
236.00000270067062
 11
572.50004537126665
 21
226.00000540134124
  0
LINE
  8
_0-1_
  6
CONTINUOUS
 62
    7
 10
568.16988730641594
 20
233.50000810201186
 11
576.83012781733964
 21
228.50001890469434
  0
LINE
  8
_0-1_
  6
CONTINUOUS
 62
    7
 10
576.83012781733964
 20
288.50000270067062
 11
568.16988730641594
 21
283.5000135033531
  0
LINE
  8
_0-1_
  6
CONTINUOUS
 62
    7
 10
572.50004537126665
 20
291.00001620402372
 11
572.50004537126665
 21
281.00001890469434
  0
LINE
  8
_0-1_
  6
CONTINUOUS
 62
    7
 10
568.16988730641594
 20
288.50000270067062
 11
576.83012781733964
 21
283.5000135033531
  0
LINE
  8
_0-1_
  6
CONTINUOUS
 62
    7
 10
576.83012781733964
 20
343.50001620402372
 11
568.16988730641594
 21
338.5000270067062
  0
LINE
  8
_0-1_
  6
CONTINUOUS
 62
    7
 10
572.50004537126665
 20
346.00001080268248
 11
572.50004537126665
 21
335.99999459865876
  0
LINE
  8
_0-1_
  6
CONTINUOUS
 62
    7
 10
568.16988730641594
 20
343.50001620402372
 11
576.83012781733964
 21
338.5000270067062
  0
LINE
  8
_0-1_
  6
CONTINUOUS
 62
    7
 10
175.83016130565551
 20
343.50001620402372
 11
167.16990189003747
 21
338.5000270067062
  0
LINE
  8
_0-1_
  6
CONTINUOUS
 62
    7
 10
171.50002214549923
 20
346.00001080268248
 11
171.50002214549923
 21
335.99999459865876
  0
LINE
  8
_0-1_
  6
CONTINUOUS
 62
    7
 10
167.16990189003747
 20
343.50001620402372
 11
175.83016130565551
 21
338.5000270067062
  0
LINE
  8
_0-1_
  6
CONTINUOUS
 62
    7
 10
167.16990189003747
 20
288.50000270067062
 11
175.83016130565551
 21
283.5000135033531
  0
LINE
  8
_0-1_
  6
CONTINUOUS
 62
    7
 10
171.50002214549923
 20
291.00001620402372
 11
171.50002214549923
 21
281.00001890469434
  0
LINE
  8
_0-1_
  6
CONTINUOUS
 62
    7
 10
175.83016130565551
 20
288.50000270067062
 11
167.16990189003747
 21
283.5000135033531
  0
LINE
  8
_0-1_
  6
CONTINUOUS
 62
    7
 10
171.50002214549923
 20
236.00000270067062
 11
171.50002214549923
 21
226.00000540134124
  0
LINE
  8
_0-1_
  6
CONTINUOUS
 62
    7
 10
167.16990189003747
 20
233.50000810201186
 11
175.83016130565551
 21
228.50001890469434
  0
LINE
  8
_0-1_
  6
CONTINUOUS
 62
    7
 10
175.83016130565551
 20
233.50000810201186
 11
167.16990189003747
 21
228.50001890469434
  0
LINE
  8
_0-1_
  6
CONTINUOUS
 62
    7
 10
597
 20
359.49999675919526
 11
597
 21
348.99999675919526
  0
ARC
  8
_0-1_
  6
CONTINUOUS
 62
    7
 10
595.5
 20
359.49999675919526
 40
1.5
 50
0
 51
90.000000000000014
  0
LINE
  8
_0-1_
  6
CONTINUOUS
 62
    7
 10
147
 20
359.49999675919526
 11
147
 21
348.99999675919526
  0
ARC
  8
_0-1_
  6
CONTINUOUS
 62
    7
 10
148.5
 20
359.49999675919526
 40
1.5
 50
90
 51
180
  0
LINE
  8
_0-1_
  6
CONTINUOUS
 62
    7
 10
148.5
 20
360.99999675919526
 11
595.5
 21
360.99999675919526
  0
LINE
  8
_0-3_
  6
CONTINUOUS
 62
    7
 10
307.00000270067062
 20
360.99999675919526
 11
436.99998649664678
 21
360.99999675919526
  0
LINE
  8
_0-3_
  6
CONTINUOUS
 62
    7
 10
436.99998649664678
 20
360.99999675919526
 11
434.99998325584198
 21
363
  0
LINE
  8
_0-3_
  6
CONTINUOUS
 62
    7
 10
309.00000594147537
 20
363
 11
434.99998325584198
 21
363
  0
LINE
  8
_0-3_
  6
CONTINUOUS
 62
    7
 10
309.00000594147537
 20
363
 11
307.00000270067062
 21
360.99999675919526
  0
LINE
  8
_0-1_
  6
CONTINUOUS
 62
    7
 10
701.00004105019354
 20
453
 11
701.00004105019354
 21
454.5
  0
LINE
  8
_0-1_
  6
CONTINUOUS
 62
    7
 10
701.00004105019354
 20
454.5
 11
690.50004105019354
 21
454.5
  0
LINE
  8
_0-1_
  6
CONTINUOUS
 62
    7
 10
690.50004105019354
 20
454.5
 11
690.50004105019354
 21
471.5
  0
LINE
  8
_0-1_
  6
CONTINUOUS
 62
    7
 10
701.00004105019354
 20
751.5
 11
701.00004105019354
 21
753
  0
LINE
  8
_0-1_
  6
CONTINUOUS
 62
    7
 10
701.00004105019354
 20
751.5
 11
690.50004105019354
 21
751.5
  0
LINE
  8
_0-1_
  6
CONTINUOUS
 62
    7
 10
690.50004105019354
 20
734.5
 11
690.50004105019354
 21
751.5
  0
LINE
  8
_0-1_
  6
CONTINUOUS
 62
    7
 10
837.50004105019343
 20
473
 11
837.50004105019343
 21
733
  0
LINE
  8
_0-1_
  6
CONTINUOUS
 62
    7
 10
690.50004105019354
 20
753
 11
701.00004105019354
 21
753
  0
ARC
  8
_0-1_
  6
CONTINUOUS
 62
    7
 10
690.50004105019354
 20
751.5
 40
1.5
 50
90
 51
180
  0
LINE
  8
_0-1_
  6
CONTINUOUS
 62
    7
 10
690.50004105019354
 20
733
 11
837.50004105019343
 21
733
  0
ARC
  8
_0-1_
  6
CONTINUOUS
 62
    7
 10
690.50004105019354
 20
734.5
 40
1.5
 50
180
 51
270
  0
LINE
  8
_0-1_
  6
CONTINUOUS
 62
    7
 10
837.50004105019343
 20
734.5
 11
690.50004105019354
 21
734.5
  0
ARC
  8
_0-1_
  6
CONTINUOUS
 62
    7
 10
837.50004105019343
 20
733
 40
1.5
 50
0
 51
90.000000000000014
  0
LINE
  8
_0-1_
  6
CONTINUOUS
 62
    7
 10
839.00004105019343
 20
473
 11
839.00004105019343
 21
733
  0
LINE
  8
_0-1_
  6
CONTINUOUS
 62
    7
 10
837.50004105019343
 20
471.5
 11
690.50004105019354
 21
471.5
  0
ARC
  8
_0-1_
  6
CONTINUOUS
 62
    7
 10
837.50004105019343
 20
473
 40
1.5
 50
270
 51
0
  0
LINE
  8
_0-1_
  6
CONTINUOUS
 62
    7
 10
690.50004105019354
 20
473
 11
837.50004105019343
 21
473
  0
ARC
  8
_0-1_
  6
CONTINUOUS
 62
    7
 10
690.50004105019354
 20
471.5
 40
1.5
 50
90
 51
180
  0
LINE
  8
_0-1_
  6
CONTINUOUS
 62
    7
 10
690.50004105019354
 20
453
 11
701.00004105019354
 21
453
  0
ARC
  8
_0-1_
  6
CONTINUOUS
 62
    7
 10
690.50004105019354
 20
454.5
 40
1.5
 50
180
 51
270
  0
ARC
  8
_0-2_
  6
CONTINUOUS
 62
    7
 10
690.50004105019354
 20
475.5
 40
1.5
 50
180
 51
270
  0
LINE
  8
_0-2_
  6
CONTINUOUS
 62
    7
 10
707.50004105019354
 20
474
 11
690.50004105019354
 21
474
  0
ARC
  8
_0-2_
  6
CONTINUOUS
 62
    7
 10
707.50004105019354
 20
475.5
 40
1.5
 50
270
 51
0
  0
LINE
  8
_0-2_
  6
CONTINUOUS
 62
    7
 10
709.00004105019354
 20
475.5
 11
709.00004105019354
 21
489
  0
LINE
  8
_0-2_
  6
CONTINUOUS
 62
    7
 10
707.50004105019354
 20
489
 11
709.00004105019354
 21
489
  0
LINE
  8
_0-2_
  6
CONTINUOUS
 62
    7
 10
707.50004105019354
 20
489
 11
707.50004105019354
 21
475.5
  0
LINE
  8
_0-2_
  6
CONTINUOUS
 62
    7
 10
690.50004105019354
 20
475.5
 11
707.50004105019354
 21
475.5
  0
LINE
  8
_0-2_
  6
CONTINUOUS
 62
    7
 10
690.50004105019354
 20
730.5
 11
690.50004105019354
 21
475.5
  0
LINE
  8
_0-2_
  6
CONTINUOUS
 62
    7
 10
690.50004105019354
 20
730.5
 11
707.50004105019354
 21
730.5
  0
LINE
  8
_0-2_
  6
CONTINUOUS
 62
    7
 10
707.50004105019354
 20
717
 11
707.50004105019354
 21
730.5
  0
LINE
  8
_0-2_
  6
CONTINUOUS
 62
    7
 10
707.50004105019354
 20
717
 11
709.00004105019354
 21
717
  0
ARC
  8
_0-2_
  6
CONTINUOUS
 62
    7
 10
707.50004105019354
 20
730.5
 40
1.5
 50
0
 51
90.000000000000014
  0
LINE
  8
_0-2_
  6
CONTINUOUS
 62
    7
 10
690.50004105019354
 20
732
 11
707.50004105019354
 21
732
  0
LINE
  8
_0-2_
  6
CONTINUOUS
 62
    7
 10
689.00004105019354
 20
730.5
 11
689.00004105019354
 21
475.5
  0
ARC
  8
_0-2_
  6
CONTINUOUS
 62
    7
 10
690.50004105019354
 20
730.5
 40
1.5
 50
90
 51
180
  0
LINE
  8
_0-1_
  6
CONTINUOUS
 62
    7
 10
840.50004105019343
 20
473
 11
840.50004105019343
 21
733
  0
LINE
  8
_0-1_
  6
CONTINUOUS
 62
    7
 10
692.00004105019354
 20
734.5
 11
692.00004105019354
 21
736
  0
LINE
  8
_0-1_
  6
CONTINUOUS
 62
    7
 10
837.50004105019343
 20
736
 11
692.00004105019354
 21
736
  0
LINE
  8
_0-1_
  6
CONTINUOUS
 62
    7
 10
837.50004105019343
 20
734.5
 11
837.50004105019343
 21
736
  0
LINE
  8
_0-1_
  6
CONTINUOUS
 62
    7
 10
839.00004105019343
 20
733
 11
840.50004105019343
 21
733
  0
LINE
  8
_0-1_
  6
CONTINUOUS
 62
    7
 10
839.00004105019343
 20
473
 11
840.50004105019343
 21
473
  0
LINE
  8
_0-1_
  6
CONTINUOUS
 62
    7
 10
837.50004105019343
 20
471.5
 11
837.50004105019343
 21
470
  0
LINE
  8
_0-1_
  6
CONTINUOUS
 62
    7
 10
692.00004105019354
 20
470
 11
692.00004105019354
 21
471.5
  0
LINE
  8
_0-1_
  6
CONTINUOUS
 62
    7
 10
837.50004105019343
 20
470
 11
692.00004105019354
 21
470
  0
LINE
  8
_0-1_
  6
CONTINUOUS
 62
    7
 10
689.00004105019354
 20
454.5
 11
689.00004105019354
 21
471.5
  0
LINE
  8
_0-1_
  6
CONTINUOUS
 62
    7
 10
689.00004105019354
 20
734.5
 11
689.00004105019354
 21
751.5
  0
LINE
  8
_0-1_
  6
CONTINUOUS
 62
    7
 10
724.00005833448552
 20
731.50005833448552
 11
710.500064816095
 21
731.50005833448552
  0
ARC
  8
_0-1_
  6
CONTINUOUS
 62
    7
 10
710.500064816095
 20
731.50005833448552
 40
1.5000000675167655
 50
89.999969482421875
 51
180.00001525878906
  0
LINE
  8
_0-1_
  6
CONTINUOUS
 62
    7
 10
710.500064816095
 20
733.00003240804756
 11
724.00005833448552
 21
733.00003240804756
  0
LINE
  8
_0-1_
  6
CONTINUOUS
 62
    7
 10
724.00005833448552
 20
733.00003240804756
 11
724.00005833448552
 21
731.50005833448552
  0
LINE
  8
_0-1_
  6
CONTINUOUS
 62
    7
 10
709.00009074253319
 20
731.50005833448552
 11
709.00009074253319
 21
718.00006481609512
  0
LINE
  8
_0-1_
  6
CONTINUOUS
 62
    7
 10
710.500064816095
 20
718.00006481609512
 11
709.00009074253319
 21
718.00006481609512
  0
LINE
  8
_0-1_
  6
CONTINUOUS
 62
    7
 10
710.500064816095
 20
731.50005833448552
 11
710.500064816095
 21
718.00006481609512
  0
LINE
  8
_0-1_
  6
CONTINUOUS
 62
    7
 10
724.00005833448552
 20
733
 11
724.00005833448552
 21
701.2714951776826
  0
LINE
  8
_0-1_
  6
CONTINUOUS
 62
    7
 10
749.00000432107288
 20
733
 11
749.00000432107288
 21
683.00003240804745
  0
LINE
  8
_0-1_
  6
CONTINUOUS
 62
    7
 10
749.00000432107288
 20
708.00005401341264
 11
733.00005401341252
 21
708.00005401341264
  0
LINE
  8
_0-1_
  6
CONTINUOUS
 62
    7
 10
733.00005401341252
 20
683.00003240804745
 11
733.00005401341252
 21
708.00005401341264
  0
LINE
  8
_0-1_
  6
CONTINUOUS
 62
    7
 10
724.00005833448552
 20
701.2714951776826
 11
733.00005401341252
 21
701.2714951776826
  0
LINE
  8
_0-1_
  6
CONTINUOUS
 62
    7
 10
749.00000432107288
 20
683.00003240804745
 11
733.00005401341252
 21
683.00003240804745
  0
LINE
  8
_0-3_
  6
CONTINUOUS
 62
    7
 10
689.0000669766315
 20
718.99997191302543
 11
689.0000669766315
 21
634.00000432107299
  0
LINE
  8
_0-3_
  6
CONTINUOUS
 62
    7
 10
689.0000669766315
 20
718.99997191302543
 11
687.00002592643796
 21
717.00000648160972
  0
LINE
  8
_0-3_
  6
CONTINUOUS
 62
    7
 10
687.00002592643796
 20
635.99996975248894
 11
687.00002592643796
 21
717.00000648160972
  0
LINE
  8
_0-3_
  6
CONTINUOUS
 62
    7
 10
687.00002592643796
 20
635.99996975248894
 11
689.0000669766315
 21
634.00000432107299
  0
LINE
  8
_0-2_
  6
DASHED2
 62
    4
 10
577.03175988661496
 20
534.40002765486724
 11
555.0000021605365
 21
534.40002765486724
  0
LINE
  8
_0-2_
  6
DASHED2
 62
    4
 10
555.0000021605365
 20
534.40002765486724
 11
555.0000021605365
 21
494.00000448986492
  0
LINE
  8
_0-2_
  6
DASHED2
 62
    4
 10
555.0000021605365
 20
503.60000799398506
 11
577
 21
503.60000799398506
  0
LINE
  8
_0-2_
  6
DASHED2
 62
    4
 10
555.0000021605365
 20
494.40000064816098
 11
577
 21
494.40000064816098
  0
LINE
  8
_0-2_
  6
DASHED2
 62
    4
 10
550.00001296321909
 20
537.00002808697468
 11
550.00001296321909
 21
499.00000432107299
  0
LINE
  8
_0-2_
  6
DASHED2
 62
    4
 10
550.00001296321909
 20
507.00001728429214
 11
544.00004105019366
 21
507.00001728429214
  0
LINE
  8
_0-2_
  6
DASHED2
 62
    4
 10
544.00004105019366
 20
537.00002808697468
 11
544.00004105019366
 21
499.00000432107299
  0
LINE
  8
_0-2_
  6
DASHED2
 62
    4
 10
550.00001296321909
 20
537.00002808697468
 11
544.00004105019366
 21
537.00002808697468
  0
LINE
  8
_0-2_
  6
DASHED2
 62
    4
 10
544.00004105019366
 20
499.00000432107299
 11
550.00001296321909
 21
499.00000432107299
  0
LINE
  8
_0-2_
  6
DASHED2
 62
    4
 10
189.99999945986582
 20
504.59999070969303
 11
168.00000162040237
 21
504.59999070969303
  0
LINE
  8
_0-2_
  6
DASHED2
 62
    4
 10
189.99999945986582
 20
495.39998336386884
 11
168.00000162040237
 21
495.39998336386884
  0
LINE
  8
_0-2_
  6
DASHED2
 62
    4
 10
189.99999945986582
 20
535.40001037057516
 11
189.99999945986582
 21
494.99998720557278
  0
LINE
  8
_0-2_
  6
DASHED2
 62
    4
 10
167.96826063848172
 20
535.40001037057516
 11
189.99999945986582
 21
535.40001037057516
  0
LINE
  8
_0-6_
  6
CONTINUOUS
 62
    7
 10
704.36400208087252
 20
670.68629150101526
 11
698.00004105019343
 21
664.32233047033628
  0
LINE
  8
_0-6_
  6
CONTINUOUS
 62
    7
 10
699.41425461256665
 20
665.73654403270939
 11
709.31374954917828
 21
655.83704909609764
  0
LINE
  8
_0-6_
  6
CONTINUOUS
 62
    7
 10
698.00004105019343
 20
664.32233047033628
 11
707.89953598680518
 21
654.42283553372465
  0
LINE
  8
_0-6_
  6
CONTINUOUS
 62
    7
 10
702.9497885184993
 20
669.27207793864216
 11
712.84928345511105
 21
659.37258300203041
  0
LINE
  8
_0-6_
  6
CONTINUOUS
 62
    7
 10
714.26349701748404
 20
660.78679656440352
 11
707.89953598680518
 21
654.42283553372465
  0
LINE
  8
_0-6_
  6
CONTINUOUS
 62
    7
 10
704.36400208087252
 20
670.68629150101526
 11
714.26349701748404
 21
660.78679656440352
  0
LINE
  8
_0-6_
  6
CONTINUOUS
 62
    7
 10
699.41425461256665
 20
672.10050506338825
 11
702.59623512790608
 21
668.91852454804882
  0
LINE
  8
_0-6_
  6
CONTINUOUS
 62
    7
 10
712.49573006451783
 20
659.01902961143719
 11
713.5563902362976
 21
657.95836943965742
  0
LINE
  8
_0-6_
  6
CONTINUOUS
 62
    7
 10
696.58582748782044
 20
669.27207793864216
 11
699.76780800315987
 21
666.09009742330272
  0
LINE
  8
_0-6_
  6
CONTINUOUS
 62
    7
 10
709.66730293977162
 20
656.19060248669098
 11
710.72796311155139
 21
655.1299423149112
  0
ARC
  8
_0-6_
  6
CONTINUOUS
 62
    7
 10
717.79903092341681
 20
662.20101012677674
 40
6
 50
225
 51
255.52248781407002
  0
ARC
  8
_0-6_
  6
CONTINUOUS
 62
    7
 10
717.79903092341681
 20
662.20101012677674
 40
10
 50
225
 51
261.37307344132137
  0
ARC
  8
_0-6_
  6
CONTINUOUS
 62
    7
 10
717.79903092341681
 20
662.20101012677674
 40
10
 50
278.62692655867863
 51
45.000000000000028
  0
ARC
  8
_0-6_
  6
CONTINUOUS
 62
    7
 10
717.79903092341681
 20
662.20101012677674
 40
6
 50
284.47751218592998
 51
45
  0
LINE
  8
_0-6_
  6
CONTINUOUS
 62
    7
 10
710.72796311155139
 20
683.41421356237311
 11
724.87009873528234
 21
669.27207793864216
  0
LINE
  8
_0-6_
  6
CONTINUOUS
 62
    7
 10
707.89953598680518
 20
680.58578643762689
 11
722.04167161053613
 21
666.44365081389606
  0
ARC
  8
_0-6_
  6
CONTINUOUS
 62
    7
 10
703.65689529968586
 20
676.34314575050757
 40
10
 50
45
 51
145.55009801204665
  0
ARC
  8
_0-6_
  6
CONTINUOUS
 62
    7
 10
703.65689529968586
 20
676.34314575050757
 40
6
 50
45
 51
109.47122063449137
  0
ARC
  8
_0-6_
  6
CONTINUOUS
 62
    7
 10
703.65689529968586
 20
676.34314575050757
 40
6
 50
153.71675313721724
 51
225
  0
ARC
  8
_0-6_
  6
CONTINUOUS
 62
    7
 10
703.65689529968586
 20
676.34314575050757
 40
10
 50
164.5923151705683
 51
225
  0
LINE
  8
_0-7_
  6
DASHED2
 62
    4
 10
577
 20
502.00002808697457
 11
594.99999135785401
 21
502.00002808697457
  0
LINE
  8
_0-7_
  6
DASHED2
 62
    4
 10
577
 20
496.00001836456033
 11
594.99999135785401
 21
496.00001836456033
  0
LINE
  8
_0-7_
  6
DASHED2
 62
    4
 10
594.99999135785401
 20
502.00002808697457
 11
594.99999135785401
 21
496.00001836456033
  0
ARC
  8
_0-7_
  6
DASHED2
 62
    4
 10
555.0000021605365
 20
499.00000432107299
 40
4.9999998312080853
 50
89.999969482421875
 51
270
  0
ARC
  8
_0-7_
  6
DASHED2
 62
    4
 10
189.99999945986582
 20
499.99998703678091
 40
4.9999998312080853
 50
270
 51
89.999969482421861
  0
LINE
  8
_0-7_
  6
DASHED2
 62
    4
 10
168.00000162040237
 20
503.00001080268254
 11
150.00001026254836
 21
503.00001080268254
  0
LINE
  8
_0-7_
  6
DASHED2
 62
    4
 10
168.00000162040237
 20
497.00000108026831
 11
150.00001026254836
 21
497.00000108026831
  0
LINE
  8
_0-7_
  6
DASHED2
 62
    4
 10
150.00001026254836
 20
503.00001080268254
 11
150.00001026254836
 21
497.00000108026831
  0
LINE
  8
_0-8_
  6
CONTINUOUS
 62
    7
 10
427.49999105777943
 20
711.50003504870347
 11
426.50000834207145
 21
711.50003504870347
  0
LINE
  8
_0-8_
  6
CONTINUOUS
 62
    7
 10
424.50004291065551
 20
709.50003180789861
 11
424.50004291065551
 21
708.50001128280178
  0
LINE
  8
_0-8_
  6
CONTINUOUS
 62
    7
 10
426.50000834207145
 20
706.50000804199703
 11
427.49999105777943
 21
706.50000804199703
  0
LINE
  8
_0-8_
  6
CONTINUOUS
 62
    7
 10
429.50003210797308
 20
708.50001128280178
 11
429.50003210797308
 21
709.50003180789861
  0
LINE
  8
_0-8_
  6
CONTINUOUS
 62
    7
 10
427.49999105777943
 20
710.50001452360652
 11
427.49999105777943
 21
711.50003504870347
  0
LINE
  8
_0-8_
  6
CONTINUOUS
 62
    7
 10
428.4999737734874
 20
709.50003180789861
 11
429.50003210797308
 21
709.50003180789861
  0
LINE
  8
_0-8_
  6
CONTINUOUS
 62
    7
 10
428.4999737734874
 20
708.50001128280178
 11
429.50003210797308
 21
708.50001128280178
  0
LINE
  8
_0-8_
  6
CONTINUOUS
 62
    7
 10
427.49999105777943
 20
707.50002856709375
 11
427.49999105777943
 21
706.50000804199703
  0
LINE
  8
_0-8_
  6
CONTINUOUS
 62
    7
 10
426.50000834207145
 20
707.50002856709375
 11
426.50000834207145
 21
706.50000804199703
  0
LINE
  8
_0-8_
  6
CONTINUOUS
 62
    7
 10
425.50002562636359
 20
708.50001128280178
 11
424.50004291065551
 21
708.50001128280178
  0
LINE
  8
_0-8_
  6
CONTINUOUS
 62
    7
 10
425.50002562636359
 20
709.50003180789861
 11
424.50004291065551
 21
709.50003180789861
  0
LINE
  8
_0-8_
  6
CONTINUOUS
 62
    7
 10
426.50000834207145
 20
710.50001452360652
 11
426.50000834207145
 21
711.50003504870347
  0
CIRCLE
  8
_0-8_
  6
CONTINUOUS
 62
    7
 10
426.99999969992552
 20
709.00000264065579
 40
3.9999999831208077
  0
ARC
  8
_0-8_
  6
CONTINUOUS
 62
    7
 10
428.4999737734874
 20
710.50001452360652
 40
0.9999999957802019
 50
180.00001525878906
 51
270
  0
ARC
  8
_0-8_
  6
CONTINUOUS
 62
    7
 10
428.4999737734874
 20
707.50002856709375
 40
0.9999999957802019
 50
89.999969482421875
 51
180.00001525878903
  0
ARC
  8
_0-8_
  6
CONTINUOUS
 62
    7
 10
425.50002562636359
 20
707.50002856709375
 40
0.9999999957802019
 50
0
 51
89.999969482421875
  0
ARC
  8
_0-8_
  6
CONTINUOUS
 62
    7
 10
425.50002562636359
 20
710.50001452360652
 40
0.9999999957802019
 50
270
 51
0
  0
CIRCLE
  8
_0-8_
  6
CONTINUOUS
 62
    7
 10
426.99999969992552
 20
709.00000264065579
 40
3.9999999831208077
  0
LINE
  8
_0-8_
  6
CONTINUOUS
 62
    7
 10
427.49999105777943
 20
646.50002424602087
 11
426.50000834207145
 21
646.50002424602087
  0
LINE
  8
_0-8_
  6
CONTINUOUS
 62
    7
 10
424.50004291065551
 20
644.50002100521613
 11
424.50004291065551
 21
643.5000004801193
  0
LINE
  8
_0-8_
  6
CONTINUOUS
 62
    7
 10
426.50000834207145
 20
641.49999723931455
 11
427.49999105777943
 21
641.49999723931455
  0
LINE
  8
_0-8_
  6
CONTINUOUS
 62
    7
 10
429.50003210797308
 20
643.5000004801193
 11
429.50003210797308
 21
644.50002100521613
  0
LINE
  8
_0-8_
  6
CONTINUOUS
 62
    7
 10
427.49999105777943
 20
645.50000372092416
 11
427.49999105777943
 21
646.50002424602087
  0
LINE
  8
_0-8_
  6
CONTINUOUS
 62
    7
 10
428.4999737734874
 20
644.50002100521613
 11
429.50003210797308
 21
644.50002100521613
  0
LINE
  8
_0-8_
  6
CONTINUOUS
 62
    7
 10
428.4999737734874
 20
643.5000004801193
 11
429.50003210797308
 21
643.5000004801193
  0
LINE
  8
_0-8_
  6
CONTINUOUS
 62
    7
 10
427.49999105777943
 20
642.50001776441138
 11
427.49999105777943
 21
641.49999723931455
  0
LINE
  8
_0-8_
  6
CONTINUOUS
 62
    7
 10
426.50000834207145
 20
642.50001776441138
 11
426.50000834207145
 21
641.49999723931455
  0
LINE
  8
_0-8_
  6
CONTINUOUS
 62
    7
 10
425.50002562636359
 20
643.5000004801193
 11
424.50004291065551
 21
643.5000004801193
  0
LINE
  8
_0-8_
  6
CONTINUOUS
 62
    7
 10
425.50002562636359
 20
644.50002100521613
 11
424.50004291065551
 21
644.50002100521613
  0
LINE
  8
_0-8_
  6
CONTINUOUS
 62
    7
 10
426.50000834207145
 20
645.50000372092416
 11
426.50000834207145
 21
646.50002424602087
  0
CIRCLE
  8
_0-8_
  6
CONTINUOUS
 62
    7
 10
426.99999969992552
 20
643.99999183797331
 40
3.9999999831208077
  0
ARC
  8
_0-8_
  6
CONTINUOUS
 62
    7
 10
428.4999737734874
 20
645.50000372092416
 40
0.9999999957802019
 50
180.00001525878906
 51
270
  0
ARC
  8
_0-8_
  6
CONTINUOUS
 62
    7
 10
428.4999737734874
 20
642.50001776441138
 40
0.9999999957802019
 50
89.999969482421875
 51
180.00001525878903
  0
ARC
  8
_0-8_
  6
CONTINUOUS
 62
    7
 10
425.50002562636359
 20
642.50001776441138
 40
0.9999999957802019
 50
0
 51
89.999969482421875
  0
ARC
  8
_0-8_
  6
CONTINUOUS
 62
    7
 10
425.50002562636359
 20
645.50000372092416
 40
0.9999999957802019
 50
270
 51
0
  0
CIRCLE
  8
_0-8_
  6
CONTINUOUS
 62
    7
 10
426.99999969992552
 20
643.99999183797331
 40
3.9999999831208077
  0
LINE
  8
_0-8_
  6
CONTINUOUS
 62
    7
 10
317.50000186046191
 20
646.50002424602087
 11
316.50001914475399
 21
646.50002424602087
  0
LINE
  8
_0-8_
  6
CONTINUOUS
 62
    7
 10
314.50005371333805
 20
644.50002100521613
 11
314.50005371333805
 21
643.5000004801193
  0
LINE
  8
_0-8_
  6
CONTINUOUS
 62
    7
 10
316.50001914475399
 20
641.49999723931455
 11
317.50000186046191
 21
641.49999723931455
  0
LINE
  8
_0-8_
  6
CONTINUOUS
 62
    7
 10
319.50004291065557
 20
643.5000004801193
 11
319.50004291065557
 21
644.50002100521613
  0
LINE
  8
_0-8_
  6
CONTINUOUS
 62
    7
 10
317.50000186046191
 20
645.50000372092416
 11
317.50000186046191
 21
646.50002424602087
  0
LINE
  8
_0-8_
  6
CONTINUOUS
 62
    7
 10
318.49998457616994
 20
644.50002100521613
 11
319.50004291065557
 21
644.50002100521613
  0
LINE
  8
_0-8_
  6
CONTINUOUS
 62
    7
 10
318.49998457616994
 20
643.5000004801193
 11
319.50004291065557
 21
643.5000004801193
  0
LINE
  8
_0-8_
  6
CONTINUOUS
 62
    7
 10
317.50000186046191
 20
642.50001776441138
 11
317.50000186046191
 21
641.49999723931455
  0
LINE
  8
_0-8_
  6
CONTINUOUS
 62
    7
 10
316.50001914475399
 20
642.50001776441138
 11
316.50001914475399
 21
641.49999723931455
  0
LINE
  8
_0-8_
  6
CONTINUOUS
 62
    7
 10
315.50003642904608
 20
643.5000004801193
 11
314.50005371333805
 21
643.5000004801193
  0
LINE
  8
_0-8_
  6
CONTINUOUS
 62
    7
 10
315.50003642904608
 20
644.50002100521613
 11
314.50005371333805
 21
644.50002100521613
  0
LINE
  8
_0-8_
  6
CONTINUOUS
 62
    7
 10
316.50001914475399
 20
645.50000372092416
 11
316.50001914475399
 21
646.50002424602087
  0
CIRCLE
  8
_0-8_
  6
CONTINUOUS
 62
    7
 10
317.00001050260801
 20
643.99999183797331
 40
3.9999999831208077
  0
ARC
  8
_0-8_
  6
CONTINUOUS
 62
    7
 10
318.49998457616994
 20
645.50000372092416
 40
0.9999999957802019
 50
180.00001525878906
 51
270
  0
ARC
  8
_0-8_
  6
CONTINUOUS
 62
    7
 10
318.49998457616994
 20
642.50001776441138
 40
0.9999999957802019
 50
89.999969482421875
 51
180.00001525878903
  0
ARC
  8
_0-8_
  6
CONTINUOUS
 62
    7
 10
315.50003642904608
 20
642.50001776441138
 40
0.9999999957802019
 50
0
 51
89.999969482421875
  0
ARC
  8
_0-8_
  6
CONTINUOUS
 62
    7
 10
315.50003642904608
 20
645.50000372092416
 40
0.9999999957802019
 50
270
 51
0
  0
CIRCLE
  8
_0-8_
  6
CONTINUOUS
 62
    7
 10
317.00001050260801
 20
643.99999183797331
 40
3.9999999831208077
  0
LINE
  8
_0-8_
  6
CONTINUOUS
 62
    7
 10
317.50000186046191
 20
711.50003504870347
 11
316.50001914475399
 21
711.50003504870347
  0
LINE
  8
_0-8_
  6
CONTINUOUS
 62
    7
 10
314.50005371333805
 20
709.50003180789861
 11
314.50005371333805
 21
708.50001128280178
  0
LINE
  8
_0-8_
  6
CONTINUOUS
 62
    7
 10
316.50001914475399
 20
706.50000804199703
 11
317.50000186046191
 21
706.50000804199703
  0
LINE
  8
_0-8_
  6
CONTINUOUS
 62
    7
 10
319.50004291065557
 20
708.50001128280178
 11
319.50004291065557
 21
709.50003180789861
  0
LINE
  8
_0-8_
  6
CONTINUOUS
 62
    7
 10
317.50000186046191
 20
710.50001452360652
 11
317.50000186046191
 21
711.50003504870347
  0
LINE
  8
_0-8_
  6
CONTINUOUS
 62
    7
 10
318.49998457616994
 20
709.50003180789861
 11
319.50004291065557
 21
709.50003180789861
  0
LINE
  8
_0-8_
  6
CONTINUOUS
 62
    7
 10
318.49998457616994
 20
708.50001128280178
 11
319.50004291065557
 21
708.50001128280178
  0
LINE
  8
_0-8_
  6
CONTINUOUS
 62
    7
 10
317.50000186046191
 20
707.50002856709375
 11
317.50000186046191
 21
706.50000804199703
  0
LINE
  8
_0-8_
  6
CONTINUOUS
 62
    7
 10
316.50001914475399
 20
707.50002856709375
 11
316.50001914475399
 21
706.50000804199703
  0
LINE
  8
_0-8_
  6
CONTINUOUS
 62
    7
 10
315.50003642904608
 20
708.50001128280178
 11
314.50005371333805
 21
708.50001128280178
  0
LINE
  8
_0-8_
  6
CONTINUOUS
 62
    7
 10
315.50003642904608
 20
709.50003180789861
 11
314.50005371333805
 21
709.50003180789861
  0
LINE
  8
_0-8_
  6
CONTINUOUS
 62
    7
 10
316.50001914475399
 20
710.50001452360652
 11
316.50001914475399
 21
711.50003504870347
  0
CIRCLE
  8
_0-8_
  6
CONTINUOUS
 62
    7
 10
317.00001050260801
 20
709.00000264065579
 40
3.9999999831208077
  0
ARC
  8
_0-8_
  6
CONTINUOUS
 62
    7
 10
318.49998457616994
 20
710.50001452360652
 40
0.9999999957802019
 50
180.00001525878906
 51
270
  0
ARC
  8
_0-8_
  6
CONTINUOUS
 62
    7
 10
318.49998457616994
 20
707.50002856709375
 40
0.9999999957802019
 50
89.999969482421875
 51
180.00001525878903
  0
ARC
  8
_0-8_
  6
CONTINUOUS
 62
    7
 10
315.50003642904608
 20
707.50002856709375
 40
0.9999999957802019
 50
0
 51
89.999969482421875
  0
ARC
  8
_0-8_
  6
CONTINUOUS
 62
    7
 10
315.50003642904608
 20
710.50001452360652
 40
0.9999999957802019
 50
270
 51
0
  0
CIRCLE
  8
_0-8_
  6
CONTINUOUS
 62
    7
 10
317.00001050260801
 20
709.00000264065579
 40
3.9999999831208077
  0
ARC
  8
_0-5_
  6
CONTINUOUS
 62
    7
 10
748.0000291672427
 20
659.00000648160949
 40
1.5
 50
180
 51
0
  0
LINE
  8
_0-5_
  6
CONTINUOUS
 62
    7
 10
742.5000291672427
 20
644.00000648160949
 11
742.5000291672427
 21
658.0000064816096
  0
LINE
  8
_0-5_
  6
CONTINUOUS
 62
    7
 10
745.5000291672427
 20
644.00000648160949
 11
745.5000291672427
 21
658.0000064816096
  0
ARC
  8
_0-5_
  6
CONTINUOUS
 62
    7
 10
748.0000291672427
 20
644.00000648160949
 40
2.5
 50
180
 51
0
  0
ARC
  8
_0-5_
  6
CONTINUOUS
 62
    7
 10
748.0000291672427
 20
644.00000648160949
 40
5.5
 50
180
 51
0
  0
LINE
  8
_0-5_
  6
CONTINUOUS
 62
    7
 10
750.5000291672427
 20
644.00000648160949
 11
750.5000291672427
 21
658.0000064816096
  0
LINE
  8
_0-5_
  6
CONTINUOUS
 62
    7
 10
753.5000291672427
 20
644.00000648160949
 11
753.5000291672427
 21
658.0000064816096
  0
ARC
  8
_0-5_
  6
CONTINUOUS
 62
    7
 10
748.0000291672427
 20
658.0000064816096
 40
5.5
 50
0
 51
74.17337986812764
  0
ARC
  8
_0-5_
  6
CONTINUOUS
 62
    7
 10
748.0000291672427
 20
658.0000064816096
 40
5.5
 50
105.82662013187237
 51
180
  0
ARC
  8
_0-5_
  6
CONTINUOUS
 62
    7
 10
748.0000291672427
 20
658.0000064816096
 40
2.5
 50
0
 51
53.130102354156172
  0
ARC
  8
_0-5_
  6
CONTINUOUS
 62
    7
 10
748.0000291672427
 20
658.0000064816096
 40
2.5
 50
126.86989764584364
 51
180
  0
LINE
  8
_0-5_
  6
CONTINUOUS
 62
    7
 10
746.5000291672427
 20
681.0000064816096
 11
746.5000291672427
 21
659.00000648160949
  0
ARC
  8
_0-5_
  6
CONTINUOUS
 62
    7
 10
748.0000291672427
 20
682.0000064816096
 40
2.5
 50
306.86989764584382
 51
66.422442821867591
  0
ARC
  8
_0-5_
  6
CONTINUOUS
 62
    7
 10
748.0000291672427
 20
681.0000064816096
 40
1.5
 50
0
 51
180
  0
LINE
  8
_0-5_
  6
CONTINUOUS
 62
    7
 10
749.5000291672427
 20
681.0000064816096
 11
749.5000291672427
 21
659.00000648160949
  0
ARC
  8
_0-5_
  6
CONTINUOUS
 62
    7
 10
748.0000291672427
 20
682.0000064816096
 40
5.5
 50
285.82662013187235
 51
79.524581523656735
  0
LINE
  8
_0-5_
  6
CONTINUOUS
 62
    7
 10
734.0000291672427
 20
676.5000064816096
 11
746.5000291672427
 21
676.5000064816096
  0
LINE
  8
_0-5_
  6
CONTINUOUS
 62
    7
 10
734.0000291672427
 20
679.5000064816096
 11
746.5000291672427
 21
679.5000064816096
  0
ARC
  8
_0-5_
  6
CONTINUOUS
 62
    7
 10
734.0000291672427
 20
682.0000064816096
 40
2.5
 50
113.57755717813197
 51
270
  0
ARC
  8
_0-5_
  6
CONTINUOUS
 62
    7
 10
734.0000291672427
 20
682.0000064816096
 40
5.5
 50
100.47541847634305
 51
270
  0
LINE
  8
_0-5_
  6
CONTINUOUS
 62
    7
 10
719.29903092341681
 20
657.70101012677674
 11
719.29903092341681
 21
635.70101012677674
  0
LINE
  8
_0-5_
  6
CONTINUOUS
 62
    7
 10
716.29903092341681
 20
657.70101012677674
 11
716.29903092341681
 21
635.70101012677674
  0
ARC
  8
_0-5_
  6
CONTINUOUS
 62
    7
 10
717.79903092341681
 20
657.70101012677674
 40
1.5
 50
0
 51
180
  0
ARC
  8
_0-5_
  6
CONTINUOUS
 62
    7
 10
717.79903092341681
 20
634.70101012677674
 40
5.5
 50
0
 51
74.17337986812764
  0
LINE
  8
_0-5_
  6
CONTINUOUS
 62
    7
 10
723.29903092341692
 20
620.70101012677674
 11
723.29903092341692
 21
634.70101012677662
  0
LINE
  8
_0-5_
  6
CONTINUOUS
 62
    7
 10
720.29903092341692
 20
620.70101012677674
 11
720.29903092341692
 21
634.70101012677674
  0
ARC
  8
_0-5_
  6
CONTINUOUS
 62
    7
 10
717.79903092341681
 20
634.70101012677674
 40
2.5
 50
126.86989764584364
 51
180
  0
ARC
  8
_0-5_
  6
CONTINUOUS
 62
    7
 10
717.79903092341681
 20
634.70101012677674
 40
2.5
 50
0
 51
53.130102354156172
  0
ARC
  8
_0-5_
  6
CONTINUOUS
 62
    7
 10
717.79903092341681
 20
635.70101012677674
 40
1.5
 50
180
 51
0
  0
LINE
  8
_0-5_
  6
CONTINUOUS
 62
    7
 10
715.29903092341692
 20
620.70101012677674
 11
715.29903092341692
 21
634.70101012677674
  0
ARC
  8
_0-5_
  6
CONTINUOUS
 62
    7
 10
717.79903092341681
 20
634.70101012677674
 40
5.5
 50
105.82662013187237
 51
180
  0
LINE
  8
_0-5_
  6
CONTINUOUS
 62
    7
 10
712.29903092341692
 20
620.70101012677674
 11
712.29903092341692
 21
634.70101012677674
  0
ARC
  8
_0-5_
  6
CONTINUOUS
 62
    7
 10
717.79903092341681
 20
620.70101012677674
 40
2.5
 50
180
 51
0
  0
ARC
  8
_0-5_
  6
CONTINUOUS
 62
    7
 10
717.79903092341681
 20
620.70101012677674
 40
5.5
 50
180
 51
0
  0
LINE
  8
_0-5_
  6
CONTINUOUS
 62
    7
 10
718.0000291672427
 20
600.20101012677674
 11
718.0000291672427
 21
615.20101012677674
  0
ARC
  8
_0-5_
  6
CONTINUOUS
 62
    7
 10
733.0000291672427
 20
600.20101012677674
 40
15
 50
180
 51
270
  0
ARC
  8
_0-5_
  6
CONTINUOUS
 62
    7
 10
733.0000291672427
 20
600.20101012677674
 40
15
 50
270
 51
0
  0
LINE
  8
_0-5_
  6
CONTINUOUS
 62
    7
 10
748.0000291672427
 20
600.20101012677674
 11
748.0000291672427
 21
638.5000064816096
  0
LINE
  8
_0-0_
  6
CONTINUOUS
 62
    7
 10
724.87009873528234
 20
655.1299423149112
 11
732.66432736934235
 21
650.6299423149112
  0
LINE
  8
_0-0_
  6
CONTINUOUS
 62
    7
 10
724.87009873528234
 20
655.1299423149112
 11
729.37009873528245
 21
647.33571368085131
  0
CIRCLE
  8
_0-0_
  6
CONTINUOUS
 62
    7
 10
783.5000291672427
 20
596.50001188295084
 40
9
  0
LINE
  8
_0-0_
  6
CONTINUOUS
 62
    7
 10
753.5000291672427
 20
651.00000648160972
 11
759.86399019792168
 21
657.36396751228858
  0
LINE
  8
_0-0_
  6
CONTINUOUS
 62
    7
 10
753.5000291672427
 20
651.00000648160972
 11
762.19336160384432
 21
653.32937788753236
  0
CIRCLE
  8
_0-0_
  6
CONTINUOUS
 62
    7
 10
783.50002916724259
 20
668.32051455729834
 40
9
  0
LINE
  8
_0-2_
  6
CONTINUOUS
 62
    7
 10
690.50004105019354
 20
682
 11
705.50004105019354
 21
682
  0
LINE
  8
_0-2_
  6
CONTINUOUS
 62
    7
 10
690.50004105019354
 20
679
 11
705.50004105019354
 21
679
  0
LINE
  8
_0-2_
  6
CONTINUOUS
 62
    7
 10
705.50004105019354
 20
682
 11
705.50004105019354
 21
679
  0
LINE
  8
_0-0_
  6
CONTINUOUS
 62
    7
 10
262.00000270067062
 20
768
 11
277.00000270067062
 21
768
  0
LINE
  8
_0-0_
  6
CONTINUOUS
 62
    7
 10
262.00000270067062
 20
768
 11
270.69333513727224
 21
770.32937140592276
  0
LINE
  8
_0-0_
  6
CONTINUOUS
 62
    7
 10
262.00000270067062
 20
768
 11
270.69333513727224
 21
765.67062859407724
  0
TEXT
  8
_0-0_
 62
    7
 10
277.00000270067062
 20
762.75
 40
10.5
 41
1
 50
0
  1
A
  0
CIRCLE
  8
_0-0_
  6
CONTINUOUS
 62
    7
 10
400.29016443767796
 20
768
 40
9
  0
TEXT
  8
_0-0_
 62
    7
 10
392.79016443767796
 20
760.5
 40
15
 41
1
 50
0
  1
３
  0
CIRCLE
  8
_0-0_
  6
CONTINUOUS
 62
    7
 10
418.29016443767796
 20
768
 40
9
  0
TEXT
  8
_0-0_
 62
    7
 10
410.79016443767796
 20
760.5
 40
15
 41
1
 50
0
  1
８
  0
TEXT
  8
_0-0_
 62
    7
 10
427.19951054060442
 20
760.53938601180778
 40
10.5
 41
1
 50
0
  1
x4
  0
LINE
  8
_0-0_
  6
CONTINUOUS
 62
    7
 10
451.99998649664678
 20
768
 11
466.99998649664678
 21
768
  0
LINE
  8
_0-0_
  6
CONTINUOUS
 62
    7
 10
451.99998649664678
 20
768
 11
460.69331893324841
 21
770.32937140592276
  0
LINE
  8
_0-0_
  6
CONTINUOUS
 62
    7
 10
451.99998649664678
 20
768
 11
460.69331893324841
 21
765.67062859407724
  0
TEXT
  8
_0-0_
 62
    7
 10
466.99998649664678
 20
762.75
 40
10.5
 41
1
 50
0
  1
B
  0
LINE
  8
_0-0_
  6
CONTINUOUS
 62
    7
 10
372
 20
718.9999978394635
 11
395.79016443767796
 21
760.20577136594011
  0
LINE
  8
_0-0_
  6
CONTINUOUS
 62
    7
 10
372
 20
718.9999978394635
 11
374.3293714059227
 21
727.69333027606513
  0
LINE
  8
_0-0_
  6
CONTINUOUS
 62
    7
 10
372
 20
718.9999978394635
 11
378.36396103067887
 21
725.36395887014248
  0
LINE
  8
_0-0_
  6
CENTER2
 62
    4
 10
262.00000270067062
 20
771
 11
262.00000270067062
 21
435
  0
LINE
  8
_0-0_
  6
CENTER2
 62
    4
 10
451.99998649664678
 20
771
 11
451.99998649664678
 21
673.50001404348734
  0
LINE
  8
_0-0_
  6
CONTINUOUS
 62
    7
 10
451.99998649664678
 20
676.50001404348734
 11
460.69331893324841
 21
678.82938544940998
  0
LINE
  8
_0-0_
  6
CONTINUOUS
 62
    7
 10
451.99998649664678
 20
676.50001404348734
 11
466.99998649664678
 21
676.50001404348734
  0
LINE
  8
_0-0_
  6
CONTINUOUS
 62
    7
 10
451.99998649664678
 20
676.50001404348734
 11
460.69331893324841
 21
674.17064263756458
  0
TEXT
  8
_0-0_
 62
    7
 10
466.99998649664678
 20
671.25001404348734
 40
10.5
 41
1
 50
0
  1
B
  0
LINE
  8
_0-0_
  6
CONTINUOUS
 62
    7
 10
597
 20
691.17136103677467
 11
603.36396103067887
 21
697.53532206745354
  0
LINE
  8
_0-0_
  6
CONTINUOUS
 62
    7
 10
597
 20
691.17136103677467
 11
619.20577136594011
 21
703.99186911246352
  0
LINE
  8
_0-0_
  6
CONTINUOUS
 62
    7
 10
597
 20
691.17136103677467
 11
605.69333243660162
 21
693.50073244269731
  0
CIRCLE
  8
_0-0_
  6
CONTINUOUS
 62
    7
 10
627
 20
708.49186911246352
 40
9
  0
TEXT
  8
_0-0_
 62
    7
 10
619.5
 20
700.99186911246352
 40
15
 41
1
 50
0
  1
１
  0
POINT
  8
_0-0_
 62
    2
 10
556
 20
603
  0
LINE
  8
_0-0_
  6
CONTINUOUS
 62
    7
 10
556
 20
603
 11
619.20577136594011
 21
639.49186911246352
  0
CIRCLE
  8
_0-0_
  6
CONTINUOUS
 62
    7
 10
627
 20
643.99186911246341
 40
9
  0
TEXT
  8
_0-0_
 62
    7
 10
619.5
 20
636.49186911246341
 40
15
 41
1
 50
0
  1
２
  0
LINE
  8
_0-0_
  6
CONTINUOUS
 62
    7
 10
594.99999135785401
 20
499.00002322576745
 11
601.36395238853288
 21
505.36398425644643
  0
LINE
  8
_0-0_
  6
CONTINUOUS
 62
    7
 10
594.99999135785401
 20
499.00002322576745
 11
619.20577136594011
 21
512.97523682938083
  0
LINE
  8
_0-0_
  6
CONTINUOUS
 62
    7
 10
594.99999135785401
 20
499.00002322576745
 11
603.69332379445564
 21
501.32939463169015
  0
CIRCLE
  8
_0-0_
  6
CONTINUOUS
 62
    7
 10
627
 20
517.47523682938083
 40
9
  0
TEXT
  8
_0-0_
 62
    7
 10
619.5
 20
509.97523682938083
 40
15
 41
1
 50
0
  1
７
  0
LINE
  8
_0-0_
  6
CONTINUOUS
 62
    7
 10
262.00000270067062
 20
438
 11
270.69333513727224
 21
440.3293714059227
  0
LINE
  8
_0-0_
  6
CONTINUOUS
 62
    7
 10
262.00000270067062
 20
438
 11
277.00000270067062
 21
438
  0
LINE
  8
_0-0_
  6
CONTINUOUS
 62
    7
 10
262.00000270067062
 20
438
 11
270.69333513727224
 21
435.6706285940773
  0
TEXT
  8
_0-0_
 62
    7
 10
277.00000270067062
 20
432.75
 40
10.5
 41
1
 50
0
  1
A
  0
LINE
  8
_0-2_
  6
DASHED2
 62
    4
 10
168
 20
682
 11
220.99999999999997
 21
682
  0
LINE
  8
_0-2_
  6
DASHED2
 62
    4
 10
168
 20
679
 11
220.99999999999997
 21
679
  0
LINE
  8
_0-2_
  6
DASHED2
 62
    4
 10
220.99999999999997
 20
682
 11
220.99999999999997
 21
679
  0
LINE
  8
_0-1_
  6
DASHED2
 62
    4
 10
181.99996867222069
 20
731.50002592643807
 11
208.49996435114764
 21
731.50002592643807
  0
LINE
  8
_0-1_
  6
DASHED2
 62
    4
 10
181.99996867222069
 20
733
 11
181.99996867222069
 21
731.50002592643807
  0
LINE
  8
_0-1_
  6
DASHED2
 62
    4
 10
217.49996003007465
 20
708.00005401341264
 11
215.99994814712383
 21
708.00005401341264
  0
LINE
  8
_0-1_
  6
DASHED2
 62
    4
 10
217.49996003007465
 20
708.00005401341264
 11
217.49996003007465
 21
687.50003024751095
  0
LINE
  8
_0-1_
  6
DASHED2
 62
    4
 10
215.99994814712383
 20
708.00005401341264
 11
215.99994814712383
 21
687.50003024751095
  0
LINE
  8
_0-1_
  6
DASHED2
 62
    4
 10
209.99997623409845
 20
733
 11
209.99997623409845
 21
687.50003024751095
  0
LINE
  8
_0-1_
  6
DASHED2
 62
    4
 10
208.49996435114764
 20
731.50002592643807
 11
208.49996435114764
 21
687.50003024751095
  0
ARC
  8
_0-1_
  6
DASHED2
 62
    4
 10
212.99996219061114
 20
687.50003024751095
 40
3.000000135033531
 50
299.34024047851562
 51
0
  0
ARC
  8
_0-1_
  6
DASHED2
 62
    4
 10
212.99996219061114
 20
687.50003024751095
 40
4.4999999071644456
 50
290.2152099609375
 51
0
  0
ARC
  8
_0-1_
  6
DASHED2
 62
    4
 10
212.99996219061114
 20
687.50003024751095
 40
3.000000135033531
 50
180.00001525878906
 51
239.55410766601562
  0
ARC
  8
_0-1_
  6
DASHED2
 62
    4
 10
212.99996219061114
 20
687.50003024751095
 40
4.4999999071644456
 50
180.00001525878906
 51
250.8470458984375
  0
LINE
  8
_0-5_
  6
DASHED2
 62
    4
 10
218.99997191302546
 20
675.50001080268248
 11
218.99997191302546
 21
655.50005401341264
  0
LINE
  8
_0-5_
  6
DASHED2
 62
    4
 10
215.99994814712383
 20
675.50001080268248
 11
215.99994814712383
 21
655.50005401341264
  0
LINE
  8
_0-5_
  6
DASHED2
 62
    4
 10
209.99997623409845
 20
675.50001080268248
 11
209.99997623409845
 21
655.50005401341264
  0
LINE
  8
_0-5_
  6
DASHED2
 62
    4
 10
206.99995246819691
 20
675.50001080268248
 11
206.99995246819691
 21
655.50005401341264
  0
ARC
  8
_0-5_
  6
DASHED2
 62
    4
 10
212.99996219061114
 20
654.00000432107299
 40
1.5000000675167655
 50
0
 51
89.999969482421875
  0
ARC
  8
_0-5_
  6
DASHED2
 62
    4
 10
212.99996219061114
 20
654.00000432107299
 40
1.5000000675167655
 50
89.999969482421875
 51
180.00001525878903
  0
ARC
  8
_0-5_
  6
DASHED2
 62
    4
 10
212.99996219061114
 20
655.50005401341264
 40
6.000000270067062
 50
284.47749328613281
 51
0.0000000000000254
  0
ARC
  8
_0-5_
  6
DASHED2
 62
    4
 10
212.99996219061114
 20
655.50005401341264
 40
3.000000135033531
 50
299.78858947753906
 51
0
  0
ARC
  8
_0-5_
  6
DASHED2
 62
    4
 10
212.99996219061114
 20
655.50005401341264
 40
3.000000135033531
 50
180.00001525878906
 51
240.42987060546875
  0
ARC
  8
_0-5_
  6
DASHED2
 62
    4
 10
212.99996219061114
 20
655.50005401341264
 40
6.000000270067062
 50
180.00001525878906
 51
255.39689636230469
  0
ARC
  8
_0-5_
  6
DASHED2
 62
    4
 10
212.99996219061114
 20
675.50001080268248
 40
3.000000135033531
 50
0
 51
60.211380004882805
  0
ARC
  8
_0-5_
  6
DASHED2
 62
    4
 10
212.99996219061114
 20
675.50001080268248
 40
3.000000135033531
 50
119.57009887695312
 51
180.00001525878903
  0
ARC
  8
_0-5_
  6
DASHED2
 62
    4
 10
212.99996219061114
 20
677.00006049502213
 40
1.5000000675167655
 50
270
 51
0
  0
ARC
  8
_0-5_
  6
DASHED2
 62
    4
 10
212.99996219061114
 20
677.00006049502213
 40
1.5000000675167655
 50
180.00001525878906
 51
270
  0
LINE
  8
_0-5_
  6
DASHED2
 62
    4
 10
214.49997407356196
 20
654.00000432107299
 11
214.49997407356196
 21
625.00005185287614
  0
LINE
  8
_0-5_
  6
DASHED2
 62
    4
 10
211.49995030766041
 20
654.00000432107299
 11
211.49995030766041
 21
625.00005185287614
  0
ARC
  8
_0-5_
  6
DASHED2
 62
    4
 10
212.99996219061114
 20
625.00005185287614
 40
1.5000000675167655
 50
180.00001525878906
 51
270
  0
ARC
  8
_0-5_
  6
DASHED2
 62
    4
 10
212.99996219061114
 20
625.00005185287614
 40
1.5000000675167655
 50
270
 51
0
  0
ARC
  8
_0-5_
  6
DASHED2
 62
    4
 10
212.99996219061114
 20
675.50001080268248
 40
6.000000270067062
 50
0
 51
75.522476196289063
  0
LINE
  8
_0-5_
  6
DASHED2
 62
    4
 10
214.49997407356196
 20
686.00005617394913
 11
214.49997407356196
 21
677.00006049502213
  0
LINE
  8
_0-5_
  6
DASHED2
 62
    4
 10
211.49995030766041
 20
686.00005617394913
 11
211.49995030766041
 21
677.00006049502213
  0
ARC
  8
_0-5_
  6
DASHED2
 62
    4
 10
212.99996219061114
 20
675.50001080268248
 40
6.000000270067062
 50
104.60311889648437
 51
180.00001525878906
  0
ARC
  8
_0-5_
  6
DASHED2
 62
    4
 10
212.99996219061114
 20
686.00005617394913
 40
1.5000000675167655
 50
89.999969482421875
 51
180.00001525878903
  0
ARC
  8
_0-5_
  6
DASHED2
 62
    4
 10
212.99996219061114
 20
686.00005617394913
 40
1.5000000675167655
 50
0
 51
89.999969482421875
  0
LINE
  8
_0-2_
  6
CONTINUOUS
 62
    7
 10
709.00004105019354
 20
730.5
 11
709.00004105019354
 21
717
  0
LINE
  8
_0-2_
  6
CONTINUOUS
 62
    7
 10
709.00009074253319
 20
730.5
 11
709.00009074253319
 21
717.00000648160949
  0
TEXT
  8
_0-0_
 62
    7
 10
776.0000291672427
 20
660.82051455729834
 40
15
 41
1
 50
0
  1
５
  0
TEXT
  8
_0-0_
 62
    7
 10
776.0000291672427
 20
589.00001188295084
 40
15
 41
1
 50
0
  1
６
  0
LINE
  8
_0-0_
  6
CONTINUOUS
 62
    7
 10
724.87009873528234
 20
655.1299423149112
 11
777.13606813656384
 21
602.86397291362982
  0
LINE
  8
_0-0_
  6
CONTINUOUS
 62
    7
 10
753.5000291672427
 20
651.00000648160972
 11
775.70580053318281
 21
663.82051455729834
  0
LINE
  8
_0-0_
  6
CONTINUOUS
 62
    2
 10
168
 20
783
 11
176.69333243660159
 21
785.32937140592276
  0
LINE
  8
_0-0_
  6
CONTINUOUS
 62
    2
 10
168
 20
783
 11
176.69333243660159
 21
780.67062859407724
  0
LINE
  8
_0-0_
  6
CONTINUOUS
 62
    2
 10
576
 20
783
 11
567.30666756339838
 21
785.32937140592276
  0
LINE
  8
_0-0_
  6
CONTINUOUS
 62
    2
 10
576
 20
783
 11
567.30666756339838
 21
780.67062859407724
  0
LINE
  8
_0-0_
  6
CONTINUOUS
 62
    2
 10
168
 20
786
 11
168
 21
735
  0
LINE
  8
_0-0_
  6
CONTINUOUS
 62
    2
 10
576
 20
786
 11
576
 21
735
  0
LINE
  8
_0-0_
  6
CONTINUOUS
 62
    2
 10
168
 20
783
 11
576
 21
783
  0
TEXT
  8
_0-0_
 62
    7
 10
360
 20
784.5
 40
15
 41
1
 50
0
  1
408
  0
LINE
  8
_0-0_
  6
CONTINUOUS
 62
    2
 10
147
 20
807
 11
155.69333243660159
 21
809.32937140592276
  0
LINE
  8
_0-0_
  6
CONTINUOUS
 62
    2
 10
147
 20
807
 11
155.69333243660159
 21
804.67062859407724
  0
LINE
  8
_0-0_
  6
CONTINUOUS
 62
    2
 10
597
 20
807
 11
588.30666756339838
 21
809.32937140592276
  0
LINE
  8
_0-0_
  6
CONTINUOUS
 62
    2
 10
597
 20
807
 11
588.30666756339838
 21
804.67062859407724
  0
LINE
  8
_0-0_
  6
CONTINUOUS
 62
    2
 10
147
 20
810
 11
147
 21
756
  0
LINE
  8
_0-0_
  6
CONTINUOUS
 62
    2
 10
597
 20
810
 11
597
 21
756
  0
LINE
  8
_0-0_
  6
CONTINUOUS
 62
    2
 10
147
 20
807
 11
597
 21
807
  0
TEXT
  8
_0-0_
 62
    7
 10
360
 20
808.5
 40
15
 41
1
 50
0
  1
450
  0
LINE
  8
_0-0_
  6
CONTINUOUS
 62
    2
 10
123
 20
474
 11
120.6706285940773
 21
482.69333243660162
  0
LINE
  8
_0-0_
  6
CONTINUOUS
 62
    2
 10
123
 20
474
 11
125.3293714059227
 21
482.69333243660162
  0
LINE
  8
_0-0_
  6
CONTINUOUS
 62
    2
 10
123
 20
732
 11
120.6706285940773
 21
723.30666756339838
  0
LINE
  8
_0-0_
  6
CONTINUOUS
 62
    2
 10
123
 20
732
 11
125.3293714059227
 21
723.30666756339838
  0
LINE
  8
_0-0_
  6
CONTINUOUS
 62
    2
 10
120
 20
474
 11
165
 21
474
  0
LINE
  8
_0-0_
  6
CONTINUOUS
 62
    2
 10
120
 20
732
 11
165
 21
732
  0
LINE
  8
_0-0_
  6
CONTINUOUS
 62
    2
 10
123
 20
474
 11
123
 21
732
  0
TEXT
  8
_0-0_
 62
    7
 10
121.5
 20
591
 40
15
 41
1
 50
90
  1
258
  0
LINE
  8
_0-0_
  6
CONTINUOUS
 62
    2
 10
99
 20
453
 11
96.6706285940773
 21
461.69333243660162
  0
LINE
  8
_0-0_
  6
CONTINUOUS
 62
    2
 10
99
 20
453
 11
101.3293714059227
 21
461.69333243660162
  0
LINE
  8
_0-0_
  6
CONTINUOUS
 62
    2
 10
99
 20
753
 11
96.6706285940773
 21
744.30666756339838
  0
LINE
  8
_0-0_
  6
CONTINUOUS
 62
    2
 10
99
 20
753
 11
101.3293714059227
 21
744.30666756339838
  0
LINE
  8
_0-0_
  6
CONTINUOUS
 62
    2
 10
96
 20
453
 11
144
 21
453
  0
LINE
  8
_0-0_
  6
CONTINUOUS
 62
    2
 10
96
 20
753
 11
144
 21
753
  0
LINE
  8
_0-0_
  6
CONTINUOUS
 62
    2
 10
99
 20
453
 11
99
 21
753
  0
TEXT
  8
_0-0_
 62
    7
 10
97.5
 20
591
 40
15
 41
1
 50
90
  1
300
  0
LINE
  8
_0-0_
  6
CONTINUOUS
 62
    2
 10
689.00004105019354
 20
807
 11
697.69337348679517
 21
809.32937140592276
  0
LINE
  8
_0-0_
  6
CONTINUOUS
 62
    2
 10
689.00004105019354
 20
807
 11
697.69337348679517
 21
804.67062859407724
  0
LINE
  8
_0-0_
  6
CONTINUOUS
 62
    2
 10
839.00004105019343
 20
807
 11
830.30670861359181
 21
809.32937140592276
  0
LINE
  8
_0-0_
  6
CONTINUOUS
 62
    2
 10
839.00004105019343
 20
807
 11
830.30670861359181
 21
804.67062859407724
  0
LINE
  8
_0-0_
  6
CONTINUOUS
 62
    2
 10
689.00004105019354
 20
810
 11
689.00004105019354
 21
754.5
  0
LINE
  8
_0-0_
  6
CONTINUOUS
 62
    2
 10
839.00004105019343
 20
810
 11
839.00004105019343
 21
736
  0
LINE
  8
_0-0_
  6
CONTINUOUS
 62
    2
 10
689.00004105019354
 20
807
 11
839.00004105019343
 21
807
  0
TEXT
  8
_0-0_
 62
    7
 10
752.00004105019343
 20
808.5
 40
15
 41
1
 50
0
  1
150
  0
LINE
  8
_0-0_
  6
CONTINUOUS
 62
    2
 10
879.50004105019343
 20
470.00000000000006
 11
877.17066964427079
 21
478.69333243660162
  0
LINE
  8
_0-0_
  6
CONTINUOUS
 62
    2
 10
879.50004105019343
 20
470.00000000000006
 11
881.82941245611619
 21
478.69333243660162
  0
LINE
  8
_0-0_
  6
CONTINUOUS
 62
    2
 10
879.50004105019343
 20
736
 11
877.17066964427079
 21
727.30666756339838
  0
LINE
  8
_0-0_
  6
CONTINUOUS
 62
    2
 10
879.50004105019343
 20
736
 11
881.82941245611619
 21
727.30666756339838
  0
LINE
  8
_0-0_
  6
CONTINUOUS
 62
    2
 10
882.50004105019343
 20
470.00000000000006
 11
840.50004105019343
 21
470.00000000000006
  0
LINE
  8
_0-0_
  6
CONTINUOUS
 62
    2
 10
882.50004105019343
 20
736
 11
840.50004105019343
 21
736
  0
LINE
  8
_0-0_
  6
CONTINUOUS
 62
    2
 10
879.50004105019343
 20
470.00000000000006
 11
879.50004105019343
 21
736
  0
TEXT
  8
_0-0_
 62
    7
 10
878.00004105019343
 20
591
 40
15
 41
1
 50
90
  1
266
  0
LINE
  8
_0-0_
  6
CONTINUOUS
 62
    2
 10
163.99999999999997
 20
170.49999675919526
 11
172.69333243660157
 21
172.82936816511796
  0
LINE
  8
_0-0_
  6
CONTINUOUS
 62
    2
 10
163.99999999999997
 20
170.49999675919526
 11
172.69333243660157
 21
168.17062535327256
  0
LINE
  8
_0-0_
  6
CONTINUOUS
 62
    2
 10
580
 20
170.49999675919526
 11
571.30666756339838
 21
172.82936816511796
  0
LINE
  8
_0-0_
  6
CONTINUOUS
 62
    2
 10
580
 20
170.49999675919526
 11
571.30666756339838
 21
168.17062535327256
  0
LINE
  8
_0-0_
  6
CONTINUOUS
 62
    2
 10
163.99999999999997
 20
167.49999675919526
 11
163.99999999999997
 21
207.99999675919526
  0
LINE
  8
_0-0_
  6
CONTINUOUS
 62
    2
 10
580
 20
167.49999675919526
 11
580
 21
207.99999675919526
  0
LINE
  8
_0-0_
  6
CONTINUOUS
 62
    2
 10
163.99999999999997
 20
170.49999675919526
 11
580
 21
170.49999675919526
  0
TEXT
  8
_0-0_
 62
    7
 10
360
 20
171.99999675919526
 40
15
 41
1
 50
0
  1
416
  0
POINT
  8
_0-f_
 62
    9
 10
735
 20
144
  0
POINT
  8
_0-f_
 62
    9
 10
735
 20
132
  0
POINT
  8
_0-f_
 62
    9
 10
735
 20
120
  0
POINT
  8
_0-f_
 62
    9
 10
735
 20
108
  0
POINT
  8
_0-f_
 62
    9
 10
735
 20
96
  0
POINT
  8
_0-f_
 62
    9
 10
735
 20
84
  0
POINT
  8
_0-f_
 62
    9
 10
735
 20
72
  0
POINT
  8
_0-f_
 62
    9
 10
735
 20
60
  0
TEXT
  8
_0-f_
 62
    7
 10
735
 20
144
 40
10.5
 41
1
 50
0
  1
注１）ヘアーライン仕上げ
  0
TEXT
  8
_0-f_
 62
    7
 10
735
 20
132
 40
10.5
 41
1
 50
0
  1
　２）扉 取外し可能
  0
TEXT
  8
_0-f_
 62
    7
 10
735
 20
120
 40
10.5
 41
1
 50
0
  1
　３）裏板付
  0
TEXT
  8
_0-f_
 62
    7
 10
735
 20
84
 40
10.5
 41
1
 50
0
  1
※１）取付穴・配管穴は、
  0
TEXT
  8
_0-f_
 62
    7
 10
735
 20
72
 40
10.5
 41
1
 50
0
  1
　　　別途加工できます。
  0
TEXT
  8
_0-f_
 62
    7
 10
735
 20
60
 40
10.5
 41
1
 50
0
  1
　２）鍵付も製作可能です。
  0
TEXT
  8
_0-f_
 62
    7
 10
1165.5
 20
-22.5
 40
10.5
 41
0.8571428571428571
 50
0
  1
a 2008-01-30 品番追記
  0
LINE
  8
_0-f_
  6
CONTINUOUS
 62
    7
 10
1087.5
 20
253.5
 11
1087.5
 21
132
  0
LINE
  8
_0-f_
  6
CONTINUOUS
 62
    7
 10
1063.5
 20
253.5
 11
1063.5
 21
132
  0
LINE
  8
_0-f_
  6
CONTINUOUS
 62
    7
 10
1027.5
 20
253.5
 11
1027.5
 21
132
  0
LINE
  8
_0-f_
  6
CONTINUOUS
 62
    7
 10
939
 20
253.5
 11
939
 21
132
  0
LINE
  8
_0-f_
  6
CONTINUOUS
 62
    7
 10
915
 20
253.5
 11
915
 21
30
  0
TEXT
  8
_0-f_
 62
    7
 10
1155.75
 20
64.5
 40
10.5
 41
0.8571428571428571
 50
0
  1
05-10-22-8-1b
  0
TEXT
  8
_0-f_
 62
    7
 10
958.5
 20
112.5
 40
15
 41
1
 50
0
  1
ＳＢ７０－１　 (450 x300 x150 )
  0
TEXT
  8
_0-0_
 62
    7
 10
727.25004105019343
 20
424.5
 40
15
 41
1
 50
0
  1
A-A 断面図
  0
LINE
  8
_0-f_
  6
CONTINUOUS
 62
    7
 10
725.966204142778
 20
423
 11
801.56249475957384
 21
423
  0
LINE
  8
_1-1_
  6
CONTINUOUS
 62
    7
 10
1075.5002874188717
 20
804.75017824426163
 11
1075.5002874188717
 21
802.50017824426163
  0
LINE
  8
_1-1_
  6
CONTINUOUS
 62
    7
 10
1059.750258251629
 20
802.50017824426163
 11
1075.5002874188717
 21
802.50017824426163
  0
LINE
  8
_1-1_
  6
CONTINUOUS
 62
    7
 10
1059.750258251629
 20
802.50017824426163
 11
1059.750258251629
 21
777.00012963219024
  0
LINE
  8
_1-1_
  6
CONTINUOUS
 62
    7
 10
1059.750258251629
 20
804.75017824426163
 11
1075.5002874188717
 21
804.75017824426163
  0
ARC
  8
_1-1_
  6
CONTINUOUS
 62
    7
 10
1059.750258251629
 20
802.50017824426163
 40
2.25
 50
90
 51
180
  0
LINE
  8
_1-1_
  6
CONTINUOUS
 62
    7
 10
1057.500258251629
 20
777.00012963219024
 11
1057.500258251629
 21
802.50017824426163
  0
LINE
  8
_1-1_
  6
CONTINUOUS
 62
    7
 10
1170.7576593992501
 20
777.00012963219024
 11
1059.750258251629
 21
777.00012963219024
  0
LINE
  8
_1-1_
  6
CONTINUOUS
 62
    7
 10
1110.000258251629
 20
774.75012963219024
 11
1110.000258251629
 21
772.5001685218474
  0
LINE
  8
_1-1_
  6
CONTINUOUS
 62
    7
 10
1087.5001934355337
 20
772.50012963219024
 11
1087.5001934355337
 21
752.25017824426163
  0
ARC
  8
_1-1_
  6
CONTINUOUS
 62
    7
 10
1089.7501934355337
 20
772.50012963219024
 40
2.25
 50
90
 51
180
  0
LINE
  8
_1-1_
  6
CONTINUOUS
 62
    7
 10
1089.7501934355337
 20
772.5001685218474
 11
1110.000258251629
 21
772.5001685218474
  0
ARC
  8
_1-1_
  6
CONTINUOUS
 62
    7
 10
1059.750258251629
 20
777.00012963219024
 40
2.25
 50
180
 51
270
  0
LINE
  8
_1-1_
  6
CONTINUOUS
 62
    7
 10
1059.750258251629
 20
774.75012963219024
 11
1168.8246725301826
 21
774.75012963219024
  0
LINE
  8
_1-1_
  6
CONTINUOUS
 62
    7
 10
1116.0002679740433
 20
759.00015717903068
 11
1116.0002679740433
 21
756.75015717903068
  0
LINE
  8
_1-1_
  6
CONTINUOUS
 62
    7
 10
1092.0001934355337
 20
771.75018148506638
 11
1089.7501934355337
 21
771.75018148506638
  0
LINE
  8
_1-1_
  6
CONTINUOUS
 62
    7
 10
1092.0001934355337
 20
756.75015717903068
 11
1116.0002679740433
 21
756.75015717903068
  0
ARC
  8
_1-1_
  6
CONTINUOUS
 62
    7
 10
1092.0001934355337
 20
759.00015717903068
 40
2.25
 50
180
 51
270
  0
LINE
  8
_1-1_
  6
CONTINUOUS
 62
    7
 10
1092.0001934355337
 20
771.75018148506638
 11
1092.0001934355337
 21
759.00015717903068
  0
LINE
  8
_1-1_
  6
CONTINUOUS
 62
    7
 10
1092.0001934355337
 20
759.00015717903068
 11
1116.0002679740433
 21
759.00015717903068
  0
LINE
  8
_1-1_
  6
CONTINUOUS
 62
    7
 10
1089.7501934355337
 20
752.25017824426163
 11
1089.7501934355337
 21
772.5001685218474
  0
LINE
  8
_1-1_
  6
CONTINUOUS
 62
    7
 10
1089.7501934355337
 20
752.25017824426163
 11
1087.5001934355337
 21
752.25017824426163
  0
LINE
  8
_1-8_
  6
CONTINUOUS
 62
    7
 10
1100.1748836145991
 20
759.00011481660306
 11
1112.3248550955173
 21
759.00017153068632
  0
LINE
  8
_1-8_
  6
CONTINUOUS
 62
    7
 10
1100.1748836145991
 20
759.00011481660306
 11
1100.1748836145991
 21
762.92132653189628
  0
LINE
  8
_1-8_
  6
CONTINUOUS
 62
    7
 10
1100.1748836145991
 20
762.92132653189628
 11
1101.6970896087914
 21
763.80016796580105
  0
LINE
  8
_1-8_
  6
CONTINUOUS
 62
    7
 10
1101.6970896087914
 20
763.80016796580105
 11
1110.8027625294912
 21
763.80016796580105
  0
LINE
  8
_1-8_
  6
CONTINUOUS
 62
    7
 10
1110.8027625294912
 20
763.80016796580105
 11
1112.3248550955173
 21
762.92132653189628
  0
LINE
  8
_1-8_
  6
CONTINUOUS
 62
    7
 10
1112.3248550955173
 20
759.00017153068632
 11
1112.3248550955173
 21
762.92132653189628
  0
LINE
  8
_1-8_
  6
CONTINUOUS
 62
    7
 10
1103.2188418903181
 20
759.00011481660306
 11
1103.2188418903181
 21
762.92132653189628
  0
LINE
  8
_1-8_
  6
CONTINUOUS
 62
    7
 10
1109.2810102479646
 20
759.00017153068632
 11
1109.2810102479646
 21
762.92132653189628
  0
ARC
  8
_1-8_
  6
CONTINUOUS
 62
    7
 10
1106.2498693550581
 20
758.13358033876148
 40
5.6665831962517927
 50
57.662460327148438
 51
122.33753967285158
  0
ARC
  8
_1-8_
  6
CONTINUOUS
 62
    7
 10
1101.6968627524586
 20
762.04288209657398
 40
1.7572829892150068
 50
29.993240356445316
 51
89.993331909179688
  0
ARC
  8
_1-8_
  6
CONTINUOUS
 62
    7
 10
1110.8028759576578
 20
762.04288209657398
 40
1.7572829892150068
 50
90.006729125976563
 51
150.00675964355466
  0
LINE
  8
_1-0_
  6
CONTINUOUS
 62
    7
 10
1112.3248550955173
 20
762.92132653189628
 11
1118.6888161261959
 21
769.28528756257515
  0
LINE
  8
_1-0_
  6
CONTINUOUS
 62
    7
 10
1112.3248550955173
 20
762.92132653189628
 11
1133.2742586976303
 21
799.20675795902275
  0
LINE
  8
_1-0_
  6
CONTINUOUS
 62
    7
 10
1112.3248550955173
 20
762.92132653189628
 11
1114.65422650144
 21
771.61465896849791
  0
CIRCLE
  8
_1-0_
  6
CONTINUOUS
 62
    7
 10
1137.7742586976303
 20
807.00098659308264
 40
9
  0
TEXT
  8
_1-0_
 62
    7
 10
1130.2742586976303
 20
799.50098659308264
 40
15
 41
1
 50
0
  1
８
  0
TEXT
  8
_1-0_
 62
    7
 10
1147.1091480604368
 20
798.57436824074375
 40
10.5
 41
1
 50
0
  1
x2
  0
LINE
  8
_1-8_
  6
DASHED2
 62
    4
 10
1103.2502614924338
 20
759.000129171965
 11
1103.2502614924338
 21
754.20017856834215
  0
LINE
  8
_1-8_
  6
DASHED2
 62
    4
 10
1109.250271214848
 20
759.00015717903068
 11
1109.250271214848
 21
754.20017856834215
  0
LINE
  8
_1-8_
  6
CONTINUOUS
 62
    7
 10
1103.2502614924338
 20
763.80016796580105
 11
1103.2502614924338
 21
765.75017176265203
  0
LINE
  8
_1-8_
  6
CONTINUOUS
 62
    7
 10
1109.250271214848
 20
763.80016796580105
 11
1109.250271214848
 21
765.75017176265203
  0
LINE
  8
_1-2_
  6
CONTINUOUS
 62
    7
 10
1059.750258251629
 20
771.00015555862842
 11
1085.2501934355337
 21
771.00015555862842
  0
LINE
  8
_1-2_
  6
CONTINUOUS
 62
    7
 10
1085.2501934355337
 20
771.00015555862842
 11
1085.2501934355337
 21
731.25014421581159
  0
LINE
  8
_1-2_
  6
CONTINUOUS
 62
    7
 10
1087.5001934355337
 20
731.25014421581159
 11
1085.2501934355337
 21
731.25014421581159
  0
LINE
  8
_1-2_
  6
CONTINUOUS
 62
    7
 10
1057.500258251629
 20
771.00015555862842
 11
1057.500258251629
 21
690.9304577312638
  0
ARC
  8
_1-2_
  6
CONTINUOUS
 62
    7
 10
1059.750258251629
 20
771.00015555862842
 40
2.25
 50
90
 51
180
  0
LINE
  8
_1-2_
  6
CONTINUOUS
 62
    7
 10
1085.2501934355337
 20
773.25015555862842
 11
1059.750258251629
 21
773.25015555862842
  0
LINE
  8
_1-2_
  6
CONTINUOUS
 62
    7
 10
1087.5001934355337
 20
771.00015555862842
 11
1087.5001934355337
 21
731.25014421581159
  0
ARC
  8
_1-2_
  6
CONTINUOUS
 62
    7
 10
1085.2501934355337
 20
771.00015555862842
 40
2.25
 50
0
 51
90
  0
LINE
  8
_1-2_
  6
CONTINUOUS
 62
    7
 10
1059.750258251629
 20
771.00015555862842
 11
1059.750258251629
 21
689.49187244667007
  0
LINE
  8
_1-8_
  6
CONTINUOUS
 62
    7
 10
1085.2501934355337
 20
734.92516009575502
 11
1085.2501934355337
 21
747.07513157667313
  0
LINE
  8
_1-8_
  6
CONTINUOUS
 62
    7
 10
1085.2501934355337
 20
734.92516009575502
 11
1081.3289817202408
 21
734.92516009575502
  0
LINE
  8
_1-8_
  6
CONTINUOUS
 62
    7
 10
1081.3289817202408
 20
734.92516009575502
 11
1080.4501402863359
 21
736.44730937586428
  0
LINE
  8
_1-8_
  6
CONTINUOUS
 62
    7
 10
1080.4501402863359
 20
736.44730937586428
 11
1080.4501402863359
 21
745.55298229656387
  0
LINE
  8
_1-8_
  6
CONTINUOUS
 62
    7
 10
1080.4501402863359
 20
745.55298229656387
 11
1081.3289817202408
 21
747.07513157667313
  0
LINE
  8
_1-8_
  6
CONTINUOUS
 62
    7
 10
1085.2501934355337
 20
747.07513157667313
 11
1081.3289817202408
 21
747.07513157667313
  0
LINE
  8
_1-8_
  6
CONTINUOUS
 62
    7
 10
1085.2501934355337
 20
737.96906165739074
 11
1081.3289817202408
 21
737.96906165739074
  0
LINE
  8
_1-8_
  6
CONTINUOUS
 62
    7
 10
1085.2501934355337
 20
744.03123001503729
 11
1081.3289817202408
 21
744.03123001503729
  0
ARC
  8
_1-8_
  6
CONTINUOUS
 62
    7
 10
1086.1167846274586
 20
741.00014583621396
 40
5.6665831962517927
 50
147.66250610351565
 51
212.33752441406253
  0
ARC
  8
_1-8_
  6
CONTINUOUS
 62
    7
 10
1082.2074828696461
 20
736.44708251953125
 40
1.7572829892150068
 50
119.99322509765624
 51
179.99330139160153
  0
ARC
  8
_1-8_
  6
CONTINUOUS
 62
    7
 10
1082.2074828696461
 20
745.5532091528969
 40
1.7572829892150068
 50
180.00671386718747
 51
240.0067443847656
  0
LINE
  8
_1-0_
  6
CONTINUOUS
 62
    7
 10
1081.3289817202408
 20
734.92516009575502
 11
1081.3289817202408
 21
725.92516009575502
  0
LINE
  8
_1-0_
  6
CONTINUOUS
 62
    7
 10
1081.3289817202408
 20
734.92516009575502
 11
1075.0709366146007
 21
711.56981780544834
  0
LINE
  8
_1-0_
  6
CONTINUOUS
 62
    7
 10
1081.3289817202408
 20
734.92516009575502
 11
1076.8289817202408
 21
727.13093146169501
  0
CIRCLE
  8
_1-0_
  6
CONTINUOUS
 62
    7
 10
1072.7415652086779
 20
702.87648536884672
 40
9
  0
TEXT
  8
_1-0_
 62
    7
 10
1065.2415652086779
 20
695.37648536884672
 40
15
 41
1
 50
0
  1
８
  0
TEXT
  8
_1-0_
 62
    7
 10
1081.8297274623005
 20
694.02867467993815
 40
10.5
 41
1
 50
0
  1
x2
  0
LINE
  8
_1-8_
  6
DASHED2
 62
    4
 10
1090.0502854743891
 20
744.00015069742119
 11
1085.2501934355337
 21
744.00015069742119
  0
LINE
  8
_1-8_
  6
DASHED2
 62
    4
 10
1090.0502854743891
 20
738.00014097500684
 11
1085.2501934355337
 21
738.00014097500684
  0
LINE
  8
_1-8_
  6
CONTINUOUS
 62
    7
 10
1078.5002355659956
 20
738.00014097500684
 11
1080.4501402863359
 21
738.00014097500684
  0
LINE
  8
_1-8_
  6
CONTINUOUS
 62
    7
 10
1078.5002355659956
 20
744.00015069742119
 11
1080.4501402863359
 21
744.00015069742119
  0
LINE
  8
_1-2_
  6
CONTINUOUS
 62
    7
 10
1059.750258251629
 20
658.06209435927133
 11
1059.750258251629
 21
448.04887997787608
  0
LINE
  8
_1-8_
  6
CONTINUOUS
 62
    7
 10
1085.2501934355337
 20
519.37132006619879
 11
1085.2501934355337
 21
531.52134826120027
  0
LINE
  8
_1-8_
  6
CONTINUOUS
 62
    7
 10
1085.2501934355337
 20
519.37132006619879
 11
1081.3289817202408
 21
519.37132006619879
  0
LINE
  8
_1-8_
  6
CONTINUOUS
 62
    7
 10
1081.3289817202408
 20
519.37132006619879
 11
1080.4501402863359
 21
520.89346934630805
  0
LINE
  8
_1-8_
  6
CONTINUOUS
 62
    7
 10
1080.4501402863359
 20
520.89346934630805
 11
1080.4501402863359
 21
529.99914226700776
  0
LINE
  8
_1-8_
  6
CONTINUOUS
 62
    7
 10
1080.4501402863359
 20
529.99914226700776
 11
1081.3289817202408
 21
531.52134826120027
  0
LINE
  8
_1-8_
  6
CONTINUOUS
 62
    7
 10
1085.2501934355337
 20
531.52134826120027
 11
1081.3289817202408
 21
531.52134826120027
  0
LINE
  8
_1-8_
  6
CONTINUOUS
 62
    7
 10
1085.2501934355337
 20
522.41522162783463
 11
1081.3289817202408
 21
522.41522162783463
  0
LINE
  8
_1-8_
  6
CONTINUOUS
 62
    7
 10
1085.2501934355337
 20
528.4773899854813
 11
1081.3289817202408
 21
528.4773899854813
  0
ARC
  8
_1-8_
  6
CONTINUOUS
 62
    7
 10
1086.1167846274586
 20
525.44630580665785
 40
5.6665831962517927
 50
147.66250610351565
 51
212.33752441406253
  0
ARC
  8
_1-8_
  6
CONTINUOUS
 62
    7
 10
1082.2074828696461
 20
520.89329920405839
 40
1.7572829892150068
 50
119.99322509765624
 51
179.99330139160153
  0
ARC
  8
_1-8_
  6
CONTINUOUS
 62
    7
 10
1082.2074828696461
 20
529.99936912334078
 40
1.7572829892150068
 50
180.00671386718747
 51
240.0067443847656
  0
LINE
  8
_1-8_
  6
DASHED2
 62
    4
 10
1090.0502854743891
 20
528.44631066786508
 11
1085.2501934355337
 21
528.44631066786508
  0
LINE
  8
_1-8_
  6
DASHED2
 62
    4
 10
1090.0502854743891
 20
522.44630094545073
 11
1085.2501934355337
 21
522.44630094545073
  0
LINE
  8
_1-8_
  6
CONTINUOUS
 62
    7
 10
1078.5002355659956
 20
522.44630094545073
 11
1080.4501402863359
 21
522.44630094545073
  0
LINE
  8
_1-8_
  6
CONTINUOUS
 62
    7
 10
1078.5002355659956
 20
528.44631066786508
 11
1080.4501402863359
 21
528.44631066786508
  0
LINE
  8
_1-8_
  6
CONTINUOUS
 62
    7
 10
1085.2501934355337
 20
564.37133627022263
 11
1085.2501934355337
 21
576.52130775114074
  0
LINE
  8
_1-8_
  6
CONTINUOUS
 62
    7
 10
1085.2501934355337
 20
564.37133627022263
 11
1081.3289817202408
 21
564.37133627022263
  0
LINE
  8
_1-8_
  6
CONTINUOUS
 62
    7
 10
1081.3289817202408
 20
564.37133627022263
 11
1080.4501402863359
 21
565.89348555033189
  0
LINE
  8
_1-8_
  6
CONTINUOUS
 62
    7
 10
1080.4501402863359
 20
565.89348555033189
 11
1080.4501402863359
 21
574.99915847103159
  0
LINE
  8
_1-8_
  6
CONTINUOUS
 62
    7
 10
1080.4501402863359
 20
574.99915847103159
 11
1081.3289817202408
 21
576.52130775114074
  0
LINE
  8
_1-8_
  6
CONTINUOUS
 62
    7
 10
1085.2501934355337
 20
576.52130775114074
 11
1081.3289817202408
 21
576.52130775114074
  0
LINE
  8
_1-8_
  6
CONTINUOUS
 62
    7
 10
1085.2501934355337
 20
567.41523783185835
 11
1081.3289817202408
 21
567.41523783185835
  0
LINE
  8
_1-8_
  6
CONTINUOUS
 62
    7
 10
1085.2501934355337
 20
573.47740618950502
 11
1081.3289817202408
 21
573.47740618950502
  0
ARC
  8
_1-8_
  6
CONTINUOUS
 62
    7
 10
1086.1167846274586
 20
570.44632201068168
 40
5.6665831962517927
 50
147.66250610351565
 51
212.33752441406253
  0
ARC
  8
_1-8_
  6
CONTINUOUS
 62
    7
 10
1082.2074828696461
 20
565.89325869399886
 40
1.7572829892150068
 50
119.99322509765624
 51
179.99330139160153
  0
ARC
  8
_1-8_
  6
CONTINUOUS
 62
    7
 10
1082.2074828696461
 20
574.99938532736451
 40
1.7572829892150068
 50
180.00671386718747
 51
240.0067443847656
  0
LINE
  8
_1-8_
  6
DASHED2
 62
    4
 10
1090.0502854743891
 20
567.44631714947457
 11
1085.2501934355337
 21
567.44631714947457
  0
LINE
  8
_1-8_
  6
DASHED2
 62
    4
 10
1090.0502854743891
 20
573.4463268718888
 11
1085.2501934355337
 21
573.4463268718888
  0
LINE
  8
_1-8_
  6
CONTINUOUS
 62
    7
 10
1078.5002355659956
 20
573.4463268718888
 11
1080.4501402863359
 21
573.4463268718888
  0
LINE
  8
_1-8_
  6
CONTINUOUS
 62
    7
 10
1078.5002355659956
 20
567.44631714947457
 11
1080.4501402863359
 21
567.44631714947457
  0
LINE
  8
_1-1_
  6
CONTINUOUS
 62
    7
 10
1089.7501934355337
 20
637.94634631671738
 11
1116.0002679740433
 21
637.94634631671738
  0
LINE
  8
_1-1_
  6
DASHED2
 62
    4
 10
1092.0001934355337
 20
637.94634631671738
 11
1092.0001934355337
 21
579.44633659430315
  0
LINE
  8
_1-1_
  6
CONTINUOUS
 62
    7
 10
1089.7501934355337
 20
648.66555700543699
 11
1089.7501934355337
 21
579.44633659430315
  0
LINE
  8
_1-1_
  6
CONTINUOUS
 62
    7
 10
1089.7501934355337
 20
457.94633821470552
 11
1116.0002679740433
 21
457.94633821470552
  0
LINE
  8
_1-1_
  6
DASHED2
 62
    4
 10
1092.0001934355337
 20
516.44634793711975
 11
1092.0001934355337
 21
457.94633821470552
  0
LINE
  8
_1-2_
  6
CONTINUOUS
 62
    7
 10
1085.2501934355337
 20
647.40156037548422
 11
1085.2501934355337
 21
437.40156037548428
  0
LINE
  8
_1-1_
  6
CONTINUOUS
 62
    7
 10
1089.7501934355337
 20
516.44634793711975
 11
1089.7501934355337
 21
438.66555700543699
  0
TEXT
  8
_0-f_
 62
    7
 10
1149.75
 20
-10.5
 40
10.5
 41
1
 50
0
  1
b 2015-04-27 図面書換
  0
ENDSEC
  0
EOF
