  0
SECTION
  2
HEADER
  9
$ACADVER
  1
AC1009
  9
$INSBASE
 10
0
 20
0
 30
0
  9
$EXTMIN
 10
0
 20
0
  9
$EXTMAX
 10
1680
 20
1188
  9
$LIMMIN
 10
0
 20
0
  9
$LIMMAX
 10
1680
 20
1188
  9
$LTSCALE
 40
4
  0
ENDSEC
  0
SECTION
  2
TABLES
  0
TABLE
  2
LTYPE
 70
     9
  0
LTYPE
  2
CONTINUOUS
 70
    64
  3
実線
 72
    65
 73
     0
 40
0.0
  0
LTYPE
  2
DASHED1
 70
    64
  3
--  --  --  --  --  --  --  --  
 72
    65
 73
     2
 40
2.5
 49
1.25
 49
-1.25
  0
LTYPE
  2
DASHED2
 70
    64
  3
----    ----    ----    ----    
 72
    65
 73
     2
 40
5.0
 49
2.5
 49
-2.5
  0
LTYPE
  2
DASHED3
 70
    64
  3
------  ------  ------  ------  
 72
    65
 73
     2
 40
5.0
 49
3.75
 49
-1.25
  0
LTYPE
  2
CENTER1
 70
    64
  3
----- - ----- - ----- - ----- - 
 72
    65
 73
     4
 40
10.0
 49
6.25
 49
-1.25
 49
1.25
 49
-1.25
  0
LTYPE
  2
CENTER2
 70
    64
  3
----------  --  ----------  --  
 72
    65
 73
     4
 40
20.0
 49
12.5
 49
-2.5
 49
2.5
 49
-2.5
  0
LTYPE
  2
PHANTOM1
 70
    64
  3
--- - - --- - - --- - - --- - - 
 72
    65
 73
     6
 40
10.0
 49
3.25
 49
-1.25
 49
1.25
 49
-1.25
 49
1.25
 49
-1.25
  0
LTYPE
  2
PHANTOM2
 70
    64
  3
--------  -  -  --------  -  -  
 72
    65
 73
     6
 40
20.0
 49
10.0
 49
-2.5
 49
1.25
 49
-2.5
 49
1.25
 49
-2.5
  0
LTYPE
  2
DOT
 70
    64
  3
-   -   -   -   -   -   -   -   
 72
    65
 73
     2
 40
2.5
 49
0.625
 49
-1.875
  0
LTYPE
  2
DUMMY
 70
    64
  3
ダミー
 72
    65
 73
     0
 40
0.0
  0
LTYPE
  2
RAND1
 70
    64
  3
ランダム線1
 72
    65
 73
     4
 40
10.0
 49
1.0
 49
-2.0
 49
3.0
 49
-4.0
  0
LTYPE
  2
RAND2
 70
    64
  3
ランダム線2
 72
    65
 73
     4
 40
14.0
 49
2.0
 49
-3.0
 49
4.0
 49
-5.0
  0
LTYPE
  2
RAND3
 70
    64
  3
ランダム線3
 72
    65
 73
     4
 40
18.0
 49
3.0
 49
-4.0
 49
5.0
 49
-6.0
  0
LTYPE
  2
RAND4
 70
    64
  3
ランダム線4
 72
    65
 73
     4
 40
22.0
 49
4.0
 49
-5.0
 49
6.0
 49
-7.0
  0
LTYPE
  2
RAND5
 70
    64
  3
ランダム線5
 72
    65
 73
     4
 40
26.0
 49
5.0
 49
-6.0
 49
7.0
 49
-8.0
  0
LTYPE
  2
LONG1
 70
    64
  3
----------  --  ----------  --  
 72
    65
 73
     4
 40
40.0
 49
32.5
 49
-2.5
 49
2.5
 49
-2.5
  0
LTYPE
  2
LONG2
 70
    64
  3
--------  -  -  --------  -  -  
 72
    65
 73
     6
 40
40.0
 49
30.0
 49
-2.5
 49
1.25
 49
-2.5
 49
1.25
 49
-2.5
  0
LTYPE
  2
LONG3
 70
    64
  3
+++++++++++++++..+++++++++++++++
 72
    65
 73
     2
 40
40.0
 49
37.5
 49
-2.5
  0
LTYPE
  2
LONG4
 70
    64
  3
+++++++++++++++..+++++++++++++++
 72
    65
 73
     2
 40
80.0
 49
75.0
 49
-5.0
  0
LTYPE
  2
LONG5
 70
    64
  3
----------  --  ----------  --  
 72
    65
 73
     4
 40
60.0
 49
37.5
 49
-7.5
 49
7.5
 49
-7.5
  0
LTYPE
  2
dashed
 70
   64
  3
-------   -------------   ------
 72
   65
 73
    2
 40
7.5
 49
6
 49
-1.5
  0
LTYPE
  2
dashed_spaced
 70
   64
  3
----        --------        ----
 72
   65
 73
    2
 40
12
 49
6
 49
-6
  0
LTYPE
  2
long_dashed_dotted
 70
   64
  3
------------- --- --------------
 72
   65
 73
    4
 40
15.25
 49
12
 49
-1.5
 49
0.25
 49
-1.5
  0
LTYPE
  2
long_dashed_double-dotted
 70
   64
  3
----------- --- --- ------------
 72
   65
 73
    6
 40
17
 49
12
 49
-1.5
 49
0.25
 49
-1.5
 49
0.25
 49
-1.5
  0
LTYPE
  2
long_dashed_triplicate-dotted
 70
   64
  3
--------- --- --- --- ----------
 72
   65
 73
    8
 40
18.75
 49
12
 49
-1.5
 49
0.25
 49
-1.5
 49
0.25
 49
-1.5
 49
0.25
 49
-1.5
  0
LTYPE
  2
dotted
 70
   64
  3
   -       -       -       -    
 72
   65
 73
    2
 40
1.75
 49
0.25
 49
-1.5
  0
LTYPE
  2
chain
 70
   64
  3
-------------- -- --------------
 72
   65
 73
    4
 40
18.5
 49
12
 49
-1.5
 49
3.5
 49
-1.5
  0
LTYPE
  2
chain_double_dash
 70
   64
  3
------------ -- -- -------------
 72
   65
 73
    6
 40
23.5
 49
12
 49
-1.5
 49
3.5
 49
-1.5
 49
3.5
 49
-1.5
  0
LTYPE
  2
dashed_dotted
 70
   64
  3
-----------     -     ----------
 72
   65
 73
    4
 40
9.25
 49
6
 49
-1.5
 49
0.25
 49
-1.5
  0
LTYPE
  2
double-dashed_dotted
 70
   64
  3
------   -----------   -   -----
 72
   65
 73
    6
 40
16.75
 49
6
 49
-1.5
 49
6
 49
-1.5
 49
0.25
 49
-1.5
  0
LTYPE
  2
dashed_double-dotted
 70
   64
  3
---------    -    -    ---------
 72
   65
 73
    6
 40
11
 49
6
 49
-1.5
 49
0.25
 49
-1.5
 49
0.25
 49
-1.5
  0
LTYPE
  2
double-dashed_double-dotted
 70
   64
  3
-----   ---------   -   -   ----
 72
   65
 73
    8
 40
18.5
 49
6
 49
-1.5
 49
6
 49
-1.5
 49
0.25
 49
-1.5
 49
0.25
 49
-1.5
  0
LTYPE
  2
dashed_triplicate-dotted
 70
   64
  3
-------    -    -    -    ------
 72
   65
 73
    8
 40
12.75
 49
6
 49
-1.5
 49
0.25
 49
-1.5
 49
0.25
 49
-1.5
 49
0.25
 49
-1.5
  0
LTYPE
  2
double-dashed_triplicate-dotted
 70
   64
  3
-----  ---------  -  -  -  -----
 72
   65
 73
   10
 40
20.25
 49
6
 49
-1.5
 49
6
 49
-1.5
 49
0.25
 49
-1.5
 49
0.25
 49
-1.5
 49
0.25
 49
-1.5
  0
LTYPE
  2
undefined
 70
   64
  3
--------------------------------
 72
   65
 73
    0
 40
0
  0
LTYPE
  2
_
 70
   64
  3
                                
 72
   65
 73
    0
 40
0
  0
LTYPE
  2
__18
 70
   64
  3
                                
 72
   65
 73
    0
 40
0
  0
LTYPE
  2
__19
 70
   64
  3
                                
 72
   65
 73
    0
 40
0
  0
LTYPE
  2
__20
 70
   64
  3
                                
 72
   65
 73
    0
 40
0
  0
LTYPE
  2
__21
 70
   64
  3
                                
 72
   65
 73
    0
 40
0
  0
LTYPE
  2
__22
 70
   64
  3
                                
 72
   65
 73
    0
 40
0
  0
LTYPE
  2
__23
 70
   64
  3
                                
 72
   65
 73
    0
 40
0
  0
LTYPE
  2
__24
 70
   64
  3
                                
 72
   65
 73
    0
 40
0
  0
LTYPE
  2
__25
 70
   64
  3
                                
 72
   65
 73
    0
 40
0
  0
LTYPE
  2
__26
 70
   64
  3
                                
 72
   65
 73
    0
 40
0
  0
LTYPE
  2
__27
 70
   64
  3
                                
 72
   65
 73
    0
 40
0
  0
LTYPE
  2
__28
 70
   64
  3
                                
 72
   65
 73
    0
 40
0
  0
LTYPE
  2
__29
 70
   64
  3
                                
 72
   65
 73
    0
 40
0
  0
LTYPE
  2
__30
 70
   64
  3
                                
 72
   65
 73
    0
 40
0
  0
LTYPE
  2
__31
 70
   64
  3
                                
 72
   65
 73
    0
 40
0
  0
LTYPE
  2
__32
 70
   64
  3
                                
 72
   65
 73
    0
 40
0
  0
ENDTAB
  0
TABLE
  2
STYLE
  5
3
100
AcDbSymbolTable
 70
     1
  0
STYLE
  5
10
100
AcDbSymbolTableRecord
100
AcDbTextStyleTableRecord
  2
STANDARD
 70
     0
 40
0.0
 41
1.0
 50
0.0
 71
     0
 42
0.2
  3
txt
  4
bigfont.shx
  0
STYLE
  5
26
100
AcDbSymbolTableRecord
100
AcDbTextStyleTableRecord
  2
TATEGAKI
 70
    68
 40
0.0
 41
1.0
 50
0.0
 71
     0
 42
1.0
  3
txt
  4
bigfont.shx
  0
ENDTAB
  0
TABLE
  2
LAYER
 70
    8
  0
LAYER
  2
_0-0_
 70
   64
 62
    7
  6
CONTINUOUS
  0
LAYER
  2
_0-1_
 70
   64
 62
    7
  6
CONTINUOUS
  0
LAYER
  2
_0-2_
 70
   64
 62
    7
  6
CONTINUOUS
  0
LAYER
  2
_0-3_
 70
   64
 62
    7
  6
CONTINUOUS
  0
LAYER
  2
_0-4_
 70
   64
 62
    7
  6
CONTINUOUS
  0
LAYER
  2
_0-5_
 70
   64
 62
    7
  6
CONTINUOUS
  0
LAYER
  2
_0-f_
 70
   64
 62
    7
  6
CONTINUOUS
  0
LAYER
  2
ADD_LINE
 70
   64
 62
    7
  6
CONTINUOUS
  0
ENDTAB
  0
ENDSEC
  0
SECTION
  2
BLOCKS
  0
ENDSEC
  0
SECTION
  2
ENTITIES
  0
LINE
  8
_0-f_
  6
CONTINUOUS
 62
    3
 10
40
 20
40
 11
1640
 21
40
  0
LINE
  8
_0-f_
  6
CONTINUOUS
 62
    3
 10
1640
 20
40
 11
1640
 21
1148
  0
LINE
  8
_0-f_
  6
CONTINUOUS
 62
    3
 10
1640
 20
1148
 11
40
 21
1148
  0
LINE
  8
_0-f_
  6
CONTINUOUS
 62
    3
 10
40
 20
1148
 11
40
 21
40
  0
LINE
  8
_0-f_
  6
CONTINUOUS
 62
    7
 10
880
 20
76
 11
1640
 21
76
  0
LINE
  8
_0-f_
  6
CONTINUOUS
 62
    7
 10
880
 20
148
 11
1640
 21
148
  0
LINE
  8
_0-f_
  6
CONTINUOUS
 62
    7
 10
880
 20
40
 11
880
 21
184
  0
LINE
  8
_0-f_
  6
CONTINUOUS
 62
    7
 10
880
 20
184
 11
1640
 21
184
  0
LINE
  8
_0-f_
  6
CONTINUOUS
 62
    7
 10
1572
 20
40
 11
1572
 21
76
  0
LINE
  8
_0-f_
  6
CONTINUOUS
 62
    7
 10
1260
 20
76
 11
1260
 21
184
  0
LINE
  8
_0-f_
  6
CONTINUOUS
 62
    7
 10
1540
 20
112
 11
1540
 21
184
  0
LINE
  8
_0-f_
  6
CONTINUOUS
 62
    7
 10
1040
 20
76
 11
1040
 21
148
  0
LINE
  8
_0-f_
  6
CONTINUOUS
 62
    7
 10
960
 20
76
 11
960
 21
148
  0
LINE
  8
_0-f_
  6
CONTINUOUS
 62
    7
 10
1120
 20
112
 11
1640
 21
112
  0
LINE
  8
_0-f_
  6
CONTINUOUS
 62
    7
 10
1120
 20
40
 11
1120
 21
148
  0
TEXT
  8
_0-f_
 62
    7
 10
884
 20
168
 40
12
 41
0.6666666666666666
 50
0
  1
注
  0
TEXT
  8
_0-f_
 62
    7
 10
1264
 20
168
 40
12
 41
0.6666666666666666
 50
0
  1
材質　MATERIAL
  0
POINT
  8
_0-f_
 62
    9
 10
908
 20
150
  0
POINT
  8
_0-f_
 62
    9
 10
1296
 20
150
  0
POINT
  8
_0-f_
 62
    9
 10
1264
 20
168
  0
TEXT
  8
_0-f_
 62
    7
 10
1544
 20
168
 40
12
 41
0.6666666666666666
 50
0
  1
個数　QUANTITY
  0
TEXT
  8
_0-f_
 62
    7
 10
884
 20
132
 40
12
 41
0.6666666666666666
 50
0
  1
APPROVED
  0
TEXT
  8
_0-f_
 62
    7
 10
964
 20
132
 40
12
 41
0.6666666666666666
 50
0
  1
CHECKED
  0
TEXT
  8
_0-f_
 62
    7
 10
1044
 20
132
 40
12
 41
0.6666666666666666
 50
0
  1
DESIGNER
  0
TEXT
  8
_0-f_
 62
    7
 10
1124
 20
132
 40
12
 41
0.6666666666666666
 50
0
  1
図面サイズ　SIZU
  0
TEXT
  8
_0-f_
 62
    7
 10
1124
 20
96
 40
12
 41
0.6666666666666666
 50
0
  1
日付　DATE
  0
TEXT
  8
_0-f_
 62
    7
 10
1264
 20
132
 40
12
 41
0.6666666666666666
 50
0
  1
表面処理　SURFACE TREATMENT
  0
TEXT
  8
_0-f_
 62
    7
 10
1544
 20
132
 40
12
 41
0.6666666666666666
 50
0
  1
尺度　SCALE
  0
TEXT
  8
_0-f_
 62
    7
 10
1124
 20
58
 40
14
 41
0.7142857142857143
 50
0
  1
図　　番
  0
TEXT
  8
_0-f_
 62
    7
 10
1174
 20
64
 40
8
 41
1
 50
0
  1
DRAWING No
  0
TEXT
  8
_0-f_
 62
    7
 10
1296
 20
150
 40
14
 41
1
 50
0
  1
別記
  0
TEXT
  8
_0-f_
 62
    7
 10
1276
 20
114
 40
14
 41
1
 50
0
  1
別記
  0
TEXT
  8
_0-f_
 62
    7
 10
1564
 20
150
 40
14
 41
1
 50
0
  1
別記
  0
TEXT
  8
_0-f_
 62
    7
 10
1576
 20
60
 40
12
 41
0.6666666666666666
 50
0
  1
ユニット
  0
TEXT
  8
_0-f_
 62
    7
 10
1060
 20
78
 40
20
 41
1
 50
0
  1
玉置
  0
TEXT
  8
_0-f_
 62
    7
 10
956
 20
46
 40
24
 41
0.8333333333333333
 50
0
  1
株式会社アウス
  0
POINT
  8
_0-f_
 62
    9
 10
920
 20
78
  0
POINT
  8
_0-f_
 62
    9
 10
1000
 20
78
  0
POINT
  8
_0-f_
 62
    9
 10
1080
 20
78
  0
POINT
  8
_0-f_
 62
    9
 10
884
 20
132
  0
POINT
  8
_0-f_
 62
    9
 10
964
 20
132
  0
POINT
  8
_0-f_
 62
    9
 10
1044
 20
132
  0
POINT
  8
_0-f_
 62
    9
 10
1124
 20
132
  0
POINT
  8
_0-f_
 62
    9
 10
1264
 20
132
  0
POINT
  8
_0-f_
 62
    9
 10
1276
 20
114
  0
POINT
  8
_0-f_
 62
    9
 10
1124
 20
58
  0
POINT
  8
_0-f_
 62
    9
 10
956
 20
46
  0
POINT
  8
_0-f_
 62
    9
 10
1276
 20
42
  0
POINT
  8
_0-f_
 62
    9
 10
1276
 20
78
  0
POINT
  8
_0-f_
 62
    9
 10
1552
 20
114
  0
POINT
  8
_0-f_
 62
    9
 10
1544
 20
132
  0
POINT
  8
_0-f_
 62
    9
 10
1544
 20
168
  0
POINT
  8
_0-f_
 62
    9
 10
1564
 20
150
  0
POINT
  8
_0-f_
 62
    9
 10
1592
 20
42
  0
POINT
  8
_0-f_
 62
    9
 10
1576
 20
60
  0
POINT
  8
_0-f_
 62
    9
 10
1124
 20
96
  0
POINT
  8
_0-f_
 62
    9
 10
1190
 20
114
  0
POINT
  8
_0-f_
 62
    9
 10
1190
 20
78
  0
TEXT
  8
_0-f_
 62
    7
 10
1264
 20
98
 40
12
 41
0.6666666666666666
 50
0
  1
図面名　TITLE
  0
POINT
  8
_0-f_
 62
    9
 10
1264
 20
98
  0
TEXT
  8
_0-f_
 62
    7
 10
908
 20
150
 40
14
 41
1
 50
0
  1
　
  0
TEXT
  8
_0-f_
 62
    7
 10
1276
 20
78
 40
18
 41
0.8888888888888888
 50
0
  1
　
  0
TEXT
  8
_0-f_
 62
    7
 10
1176
 20
114
 40
14
 41
1
 50
0
  1
Ａ３
  0
TEXT
  8
_0-f_
 62
    7
 10
1552
 20
114
 40
14
 41
1
 50
0
  1
FREE
  0
LINE
  8
_0-1_
  6
CONTINUOUS
 62
    7
 10
195.00000000000011
 20
725
 11
195.00000000000011
 21
992.99999999999989
  0
LINE
  8
_0-2_
  6
CONTINUOUS
 62
    7
 10
179
 20
1009
 11
194
 21
994
  0
LINE
  8
_0-2_
  6
CONTINUOUS
 62
    7
 10
194
 20
724
 11
194
 21
994
  0
LINE
  8
_0-2_
  6
CONTINUOUS
 62
    7
 10
179
 20
709
 11
194
 21
724
  0
LINE
  8
_0-2_
  6
CONTINUOUS
 62
    7
 10
179
 20
709
 11
179
 21
1009
  0
LINE
  8
_0-3_
  6
CONTINUOUS
 62
    7
 10
185.5
 20
1014
 11
185.5
 21
1024
  0
LINE
  8
_0-3_
  6
CONTINUOUS
 62
    7
 10
172.50775862068974
 20
1002.5
 11
164
 21
1002.5
  0
LINE
  8
_0-3_
  6
CONTINUOUS
 62
    7
 10
196
 20
704
 11
206
 21
694
  0
LINE
  8
_0-3_
  6
CONTINUOUS
 62
    7
 10
164
 20
735.99999999999989
 11
173.93760831889085
 21
726.06239168110915
  0
LINE
  8
_0-4_
  6
CONTINUOUS
 62
    7
 10
172.50000000000011
 20
1004
 11
174
 21
714
  0
LINE
  8
_0-4_
  6
CONTINUOUS
 62
    7
 10
179
 20
1004
 11
172.50000000000011
 21
1004
  0
LINE
  8
_0-4_
  6
CONTINUOUS
 62
    7
 10
182.50000000000011
 20
1009
 11
182.50000000000011
 21
1014
  0
LINE
  8
_0-4_
  6
CONTINUOUS
 62
    7
 10
179
 20
714
 11
174
 21
714
  0
LINE
  8
_0-4_
  6
CONTINUOUS
 62
    7
 10
184
 20
704
 11
184
 21
709
  0
LINE
  8
_0-2_
  6
CONTINUOUS
 62
    7
 10
179
 20
574
 11
179
 21
571
  0
LINE
  8
_0-3_
  6
CONTINUOUS
 62
    7
 10
164
 20
375.49999999999989
 11
164
 21
374
  0
LINE
  8
_0-3_
  6
CONTINUOUS
 62
    7
 10
184
 20
375.49999999999989
 11
164
 21
375.49999999999989
  0
LINE
  8
_0-3_
  6
CONTINUOUS
 62
    7
 10
184
 20
374
 11
164
 21
374
  0
ARC
  8
_0-3_
  6
CONTINUOUS
 62
    7
 10
184
 20
375.49999999999989
 40
1.5000000000000002
 50
270
 51
0
  0
ARC
  8
_0-3_
  6
CONTINUOUS
 62
    7
 10
185.5
 20
569.50000000000011
 40
1.5000000000000002
 50
90
 51
180
  0
LINE
  8
_0-3_
  6
CONTINUOUS
 62
    7
 10
183
 20
569.50000000000011
 11
182.50000000000011
 21
569.50000000000011
  0
LINE
  8
_0-3_
  6
CONTINUOUS
 62
    7
 10
182.50000000000011
 20
569.50000000000011
 11
182.50000000000011
 21
504
  0
LINE
  8
_0-3_
  6
CONTINUOUS
 62
    7
 10
182.50000000000011
 20
454
 11
182.50000000000011
 21
377.00000000000011
  0
LINE
  8
_0-3_
  6
CONTINUOUS
 62
    7
 10
182.50000000000011
 20
464
 11
182.50000000000011
 21
494
  0
LINE
  8
_0-3_
  6
CONTINUOUS
 62
    7
 10
185.5
 20
569.50000000000011
 11
185.5
 21
571
  0
LINE
  8
_0-3_
  6
CONTINUOUS
 62
    7
 10
184
 20
569.50000000000011
 11
185.5
 21
569.50000000000011
  0
LINE
  8
_0-3_
  6
CONTINUOUS
 62
    7
 10
185.5
 20
377.00000000000011
 11
182.50000000000011
 21
377.00000000000011
  0
LINE
  8
_0-3_
  6
CONTINUOUS
 62
    7
 10
185.5
 20
374
 11
185.5
 21
377.00000000000011
  0
LINE
  8
_0-3_
  6
CONTINUOUS
 62
    7
 10
184
 20
570.00000000000011
 11
184
 21
375.49999999999989
  0
LINE
  8
_0-4_
  6
CONTINUOUS
 62
    7
 10
184
 20
504
 11
184
 21
454
  0
LINE
  8
_0-4_
  6
CONTINUOUS
 62
    7
 10
181
 20
454
 11
184
 21
454
  0
LINE
  8
_0-4_
  6
CONTINUOUS
 62
    7
 10
181
 20
504
 11
184
 21
504
  0
ARC
  8
_0-4_
  6
CONTINUOUS
 62
    7
 10
175.5
 20
494
 40
1.5000000000000002
 50
90
 51
180
  0
ARC
  8
_0-4_
  6
CONTINUOUS
 62
    7
 10
182.50000000000011
 20
495.49999999999989
 40
1.5000000000000002
 50
270
 51
0
  0
ARC
  8
_0-4_
  6
CONTINUOUS
 62
    7
 10
174
 20
494
 40
1.5000000000000002
 50
90
 51
180
  0
LINE
  8
_0-4_
  6
CONTINUOUS
 62
    7
 10
174
 20
495.49999999999989
 11
182.50000000000011
 21
495.49999999999989
  0
ARC
  8
_0-4_
  6
CONTINUOUS
 62
    7
 10
182.50000000000011
 20
462.50000000000011
 40
1.5000000000000002
 50
0
 51
90
  0
ARC
  8
_0-4_
  6
CONTINUOUS
 62
    7
 10
175.5
 20
464
 40
1.5000000000000002
 50
180
 51
270
  0
LINE
  8
_0-4_
  6
CONTINUOUS
 62
    7
 10
174
 20
462.50000000000011
 11
182.50000000000011
 21
462.50000000000011
  0
ARC
  8
_0-4_
  6
CONTINUOUS
 62
    7
 10
174
 20
464
 40
1.5000000000000002
 50
180
 51
270
  0
LINE
  8
_0-4_
  6
CONTINUOUS
 62
    7
 10
182.50000000000011
 20
495.49999999999989
 11
182.50000000000011
 21
504
  0
LINE
  8
_0-4_
  6
CONTINUOUS
 62
    7
 10
182.50000000000011
 20
494
 11
175.5
 21
494
  0
LINE
  8
_0-4_
  6
CONTINUOUS
 62
    7
 10
175.5
 20
464
 11
175.5
 21
494
  0
LINE
  8
_0-4_
  6
CONTINUOUS
 62
    7
 10
182.50000000000011
 20
464
 11
175.5
 21
464
  0
LINE
  8
_0-4_
  6
CONTINUOUS
 62
    7
 10
182.50000000000011
 20
454
 11
182.50000000000011
 21
462.50000000000011
  0
LINE
  8
_0-4_
  6
CONTINUOUS
 62
    7
 10
181
 20
454
 11
181
 21
462.50000000000011
  0
LINE
  8
_0-4_
  6
CONTINUOUS
 62
    7
 10
174
 20
494
 11
174
 21
464
  0
LINE
  8
_0-4_
  6
CONTINUOUS
 62
    7
 10
172.50000000000011
 20
494
 11
172.50000000000011
 21
464
  0
LINE
  8
_0-4_
  6
CONTINUOUS
 62
    7
 10
181
 20
495.49999999999989
 11
181
 21
504
  0
LINE
  8
_0-5_
  6
CONTINUOUS
 62
    7
 10
183
 20
570.00000000000011
 11
183
 21
562.00000000000011
  0
LINE
  8
_0-5_
  6
CONTINUOUS
 62
    7
 10
184
 20
562.00000000000011
 11
183
 21
562.00000000000011
  0
LINE
  8
_0-5_
  6
CONTINUOUS
 62
    7
 10
184
 20
570.00000000000011
 11
183
 21
570.00000000000011
  0
LINE
  8
_0-0_
  6
CONTINUOUS
 62
    2
 10
195.00000000000011
 20
1052
 11
206.59110991546891
 21
1055.1058285412303
  0
LINE
  8
_0-0_
  6
CONTINUOUS
 62
    2
 10
195.00000000000011
 20
1052
 11
206.59110991546891
 21
1048.8941714587697
  0
LINE
  8
_0-0_
  6
CONTINUOUS
 62
    2
 10
195.00000000000011
 20
1056
 11
195.00000000000011
 21
996.99999999999989
  0
LINE
  8
_0-0_
  6
CONTINUOUS
 62
    2
 10
179
 20
1080
 11
190.59110991546879
 21
1083.1058285412303
  0
LINE
  8
_0-0_
  6
CONTINUOUS
 62
    2
 10
179
 20
1080
 11
190.59110991546879
 21
1076.8941714587697
  0
LINE
  8
_0-0_
  6
CONTINUOUS
 62
    2
 10
179
 20
1084
 11
179
 21
1013
  0
LINE
  8
_0-0_
  6
CONTINUOUS
 62
    2
 10
136
 20
725
 11
132.89417145876973
 21
736.59110991546879
  0
LINE
  8
_0-0_
  6
CONTINUOUS
 62
    2
 10
136
 20
725
 11
139.10582854123027
 21
736.59110991546879
  0
LINE
  8
_0-0_
  6
CONTINUOUS
 62
    2
 10
136
 20
992.99999999999989
 11
132.89417145876973
 21
981.40889008453109
  0
LINE
  8
_0-0_
  6
CONTINUOUS
 62
    2
 10
136
 20
992.99999999999989
 11
139.10582854123027
 21
981.40889008453109
  0
LINE
  8
_0-0_
  6
CONTINUOUS
 62
    2
 10
132
 20
725
 11
191.00000000000011
 21
725
  0
LINE
  8
_0-0_
  6
CONTINUOUS
 62
    2
 10
132
 20
992.99999999999989
 11
191.00000000000011
 21
992.99999999999989
  0
LINE
  8
_0-0_
  6
CONTINUOUS
 62
    2
 10
136
 20
725
 11
136
 21
992.99999999999989
  0
TEXT
  8
_0-0_
 62
    7
 10
134
 20
842.99999999999989
 40
20
 41
1
 50
90
  1
268
  0
LINE
  8
_0-0_
  6
CONTINUOUS
 62
    2
 10
108
 20
709
 11
104.89417145876973
 21
720.59110991546879
  0
LINE
  8
_0-0_
  6
CONTINUOUS
 62
    2
 10
108
 20
709
 11
111.10582854123027
 21
720.59110991546879
  0
LINE
  8
_0-0_
  6
CONTINUOUS
 62
    2
 10
108
 20
1009
 11
104.89417145876973
 21
997.40889008453121
  0
LINE
  8
_0-0_
  6
CONTINUOUS
 62
    2
 10
108
 20
1009
 11
111.10582854123027
 21
997.40889008453121
  0
LINE
  8
_0-0_
  6
CONTINUOUS
 62
    2
 10
104
 20
709
 11
175
 21
709
  0
LINE
  8
_0-0_
  6
CONTINUOUS
 62
    2
 10
104
 20
1009
 11
175
 21
1009
  0
LINE
  8
_0-0_
  6
CONTINUOUS
 62
    2
 10
108
 20
709
 11
108
 21
1009
  0
TEXT
  8
_0-0_
 62
    7
 10
106
 20
843
 40
20
 41
1
 50
90
  1
300
  0
LINE
  8
_0-0_
  6
CONTINUOUS
 62
    2
 10
108
 20
374
 11
104.89417145876973
 21
385.59110991546879
  0
LINE
  8
_0-0_
  6
CONTINUOUS
 62
    2
 10
108
 20
374
 11
111.10582854123027
 21
385.59110991546879
  0
LINE
  8
_0-0_
  6
CONTINUOUS
 62
    2
 10
108
 20
574
 11
104.89417145876973
 21
562.40889008453121
  0
LINE
  8
_0-0_
  6
CONTINUOUS
 62
    2
 10
108
 20
574
 11
111.10582854123027
 21
562.40889008453121
  0
LINE
  8
_0-0_
  6
CONTINUOUS
 62
    2
 10
104
 20
374
 11
160
 21
374
  0
LINE
  8
_0-0_
  6
CONTINUOUS
 62
    2
 10
104
 20
574
 11
175
 21
574
  0
LINE
  8
_0-0_
  6
CONTINUOUS
 62
    2
 10
108
 20
374
 11
108
 21
574
  0
TEXT
  8
_0-0_
 62
    7
 10
106
 20
458
 40
20
 41
1
 50
90
  1
200
  0
LINE
  8
_0-0_
  6
CONTINUOUS
 62
    2
 10
164
 20
294
 11
175.59110991546879
 21
297.10582854123027
  0
LINE
  8
_0-0_
  6
CONTINUOUS
 62
    2
 10
164
 20
294
 11
175.59110991546879
 21
290.89417145876973
  0
LINE
  8
_0-0_
  6
CONTINUOUS
 62
    2
 10
164
 20
290
 11
164
 21
370
  0
TEXT
  8
_0-f_
 62
    7
 10
1288
 20
336
 40
16
 41
1
 50
0
  1
番号
  0
TEXT
  8
_0-f_
 62
    7
 10
1296
 20
312
 40
16
 41
1
 50
0
  1
１
  0
TEXT
  8
_0-f_
 62
    7
 10
1296
 20
288
 40
16
 41
1
 50
0
  1
２
  0
POINT
  8
_0-f_
 62
    9
 10
1304
 20
336
  0
POINT
  8
_0-f_
 62
    9
 10
1304
 20
288
  0
LINE
  8
_0-f_
  6
CONTINUOUS
 62
    7
 10
1284
 20
356
 11
1620
 21
356
  0
LINE
  8
_0-f_
  6
CONTINUOUS
 62
    7
 10
1284
 20
332
 11
1620
 21
332
  0
LINE
  8
_0-f_
  6
CONTINUOUS
 62
    7
 10
1284
 20
308
 11
1620
 21
308
  0
LINE
  8
_0-f_
  6
CONTINUOUS
 62
    7
 10
1284
 20
284
 11
1620
 21
284
  0
POINT
  8
_0-f_
 62
    9
 10
1384
 20
336
  0
POINT
  8
_0-f_
 62
    9
 10
1384
 20
312
  0
POINT
  8
_0-f_
 62
    9
 10
1384
 20
288
  0
POINT
  8
_0-f_
 62
    9
 10
1560
 20
288
  0
POINT
  8
_0-f_
 62
    9
 10
1560
 20
312
  0
POINT
  8
_0-f_
 62
    9
 10
1560
 20
336
  0
POINT
  8
_0-f_
 62
    9
 10
1472
 20
336
  0
POINT
  8
_0-f_
 62
    9
 10
1472
 20
312
  0
POINT
  8
_0-f_
 62
    9
 10
1472
 20
288
  0
POINT
  8
_0-f_
 62
    9
 10
1304
 20
264
  0
LINE
  8
_0-f_
  6
CONTINUOUS
 62
    7
 10
1284
 20
260
 11
1620
 21
260
  0
POINT
  8
_0-f_
 62
    9
 10
1384
 20
264
  0
POINT
  8
_0-f_
 62
    9
 10
1560
 20
264
  0
POINT
  8
_0-f_
 62
    9
 10
1472
 20
264
  0
TEXT
  8
_0-f_
 62
    7
 10
1296
 20
264
 40
16
 41
1
 50
0
  1
３
  0
TEXT
  8
_0-f_
 62
    7
 10
1544
 20
336
 40
16
 41
1
 50
0
  1
備考
  0
TEXT
  8
_0-f_
 62
    7
 10
1456
 20
336
 40
16
 41
1
 50
0
  1
材質
  0
TEXT
  8
_0-f_
 62
    7
 10
1344
 20
336
 40
16
 41
1
 50
0
  1
部　材　名
  0
POINT
  8
_0-f_
 62
    9
 10
1304
 20
240
  0
LINE
  8
_0-f_
  6
CONTINUOUS
 62
    7
 10
1284
 20
236
 11
1620
 21
236
  0
POINT
  8
_0-f_
 62
    9
 10
1384
 20
240
  0
POINT
  8
_0-f_
 62
    9
 10
1560
 20
240
  0
POINT
  8
_0-f_
 62
    9
 10
1472
 20
240
  0
POINT
  8
_0-f_
 62
    9
 10
1304
 20
216
  0
LINE
  8
_0-f_
  6
CONTINUOUS
 62
    7
 10
1284
 20
212
 11
1620
 21
212
  0
POINT
  8
_0-f_
 62
    9
 10
1384
 20
216
  0
POINT
  8
_0-f_
 62
    9
 10
1560
 20
216
  0
POINT
  8
_0-f_
 62
    9
 10
1472
 20
216
  0
LINE
  8
_0-f_
  6
CONTINUOUS
 62
    7
 10
1284
 20
212
 11
1284
 21
356
  0
LINE
  8
_0-f_
  6
CONTINUOUS
 62
    7
 10
1324
 20
212
 11
1324
 21
356
  0
LINE
  8
_0-f_
  6
CONTINUOUS
 62
    7
 10
1444
 20
212
 11
1444
 21
356
  0
LINE
  8
_0-f_
  6
CONTINUOUS
 62
    7
 10
1500
 20
212
 11
1500
 21
356
  0
LINE
  8
_0-f_
  6
CONTINUOUS
 62
    7
 10
1620
 20
212
 11
1620
 21
356
  0
TEXT
  8
_0-f_
 62
    7
 10
1296
 20
240
 40
16
 41
1
 50
0
  1
４
  0
TEXT
  8
_0-f_
 62
    7
 10
1296
 20
216
 40
16
 41
1
 50
0
  1
５
  0
TEXT
  8
_0-f_
 62
    7
 10
1376
 20
312
 40
16
 41
1
 50
0
  1
蓋
  0
TEXT
  8
_0-f_
 62
    7
 10
1368
 20
288
 40
16
 41
1
 50
0
  1
目地
  0
TEXT
  8
_0-f_
 62
    7
 10
1368
 20
264
 40
16
 41
1
 50
0
  1
本体
  0
TEXT
  8
_0-f_
 62
    7
 10
1368
 20
240
 40
16
 41
1
 50
0
  1
補強
  0
TEXT
  8
_0-f_
 62
    7
 10
1360
 20
216
 40
16
 41
1
 50
0
  1
回転軸
  0
TEXT
  8
_0-f_
 62
    7
 10
1448
 20
312
 40
16
 41
1
 50
0
  1
SUS304
  0
TEXT
  8
_0-f_
 62
    7
 10
1448
 20
288
 40
16
 41
1
 50
0
  1
SUS304
  0
TEXT
  8
_0-f_
 62
    7
 10
1448
 20
264
 40
16
 41
1
 50
0
  1
SUS304
  0
TEXT
  8
_0-f_
 62
    7
 10
1448
 20
240
 40
16
 41
1
 50
0
  1
SUS304
  0
TEXT
  8
_0-f_
 62
    7
 10
1448
 20
216
 40
16
 41
1
 50
0
  1
SUS304
  0
TEXT
  8
_0-f_
 62
    7
 10
1552
 20
312
 40
16
 41
1
 50
0
  1
t3
  0
TEXT
  8
_0-f_
 62
    7
 10
1532
 20
288
 40
16
 41
1
 50
0
  1
t3x15FB
  0
TEXT
  8
_0-f_
 62
    7
 10
1544
 20
264
 40
16
 41
1
 50
0
  1
t1.5
  0
TEXT
  8
_0-f_
 62
    7
 10
1544
 20
240
 40
16
 41
1
 50
0
  1
t1.5
  0
TEXT
  8
_0-f_
 62
    7
 10
1548
 20
216
 40
16
 41
1
 50
0
  1
φ8
  0
TEXT
  8
_0-f_
 62
    7
 10
1276
 20
78
 40
18
 41
1
 50
0
  1
ステンレス製量水器ボックス（土間埋設型）
  0
TEXT
  8
_0-f_
 62
    7
 10
1592
 20
42
 40
14
 41
1
 50
0
  1
SB
  0
CIRCLE
  8
_0-1_
  6
CONTINUOUS
 62
    7
 10
429.00000000000006
 20
755
 40
10
  0
LINE
  8
ADD_LINE
  6
DOT
 62
    9
 10
437.00000000000011
 20
877.99999999999989
 11
421
 21
877.99999999999989
  0
LINE
  8
ADD_LINE
  6
DOT
 62
    9
 10
429.00000000000006
 20
870
 11
429.00000000000006
 21
885.99999999999989
  0
TEXT
  8
_0-0_
 62
    7
 10
487.31237718815214
 20
654
 40
16
 41
1
 50
0
  1
φ20穴(指穴)
  0
LINE
  8
_0-0_
  6
CONTINUOUS
 62
    7
 10
434.00000000000006
 20
746.33974596215546
 11
442.48528137423864
 21
737.85446458791694
  0
LINE
  8
_0-0_
  6
CONTINUOUS
 62
    7
 10
434.00000000000006
 20
746.33974596215546
 11
437.10582854123032
 21
734.74863604668667
  0
LINE
  8
_0-0_
  6
CONTINUOUS
 62
    7
 10
434.00000000000011
 20
746.33974596215546
 11
487.31237718815214
 21
654
  0
LINE
  8
_0-0_
  6
CONTINUOUS
 62
    7
 10
487.31237718815214
 20
654
 11
581.59095582209079
 21
654
  0
TEXT
  8
_0-1_
 62
    7
 10
339.00000000000011
 20
860.99999999999989
 40
36
 41
1
 50
0
  1
量　水　器
  0
LINE
  8
_0-1_
  6
CONTINUOUS
 62
    7
 10
663
 20
725
 11
663
 21
992.99999999999989
  0
LINE
  8
_0-2_
  6
CONTINUOUS
 62
    7
 10
664.00000000000011
 20
724
 11
679.00000000000011
 21
709
  0
LINE
  8
_0-2_
  6
CONTINUOUS
 62
    7
 10
664.00000000000011
 20
994
 11
679.00000000000011
 21
1009
  0
LINE
  8
_0-2_
  6
CONTINUOUS
 62
    7
 10
664.00000000000011
 20
724
 11
664.00000000000011
 21
994
  0
LINE
  8
_0-2_
  6
CONTINUOUS
 62
    7
 10
679.00000000000011
 20
709
 11
679.00000000000011
 21
1009
  0
LINE
  8
_0-3_
  6
CONTINUOUS
 62
    7
 10
694.00000000000011
 20
1002.5
 11
685.49224137931037
 21
1002.5
  0
LINE
  8
_0-3_
  6
CONTINUOUS
 62
    7
 10
652.00000000000011
 20
694
 11
662.00000000000011
 21
704
  0
LINE
  8
_0-3_
  6
CONTINUOUS
 62
    7
 10
684.06239168110937
 20
726.06239168110915
 11
694.00000000000011
 21
735.99999999999989
  0
LINE
  8
_0-3_
  6
CONTINUOUS
 62
    7
 10
672.50000000000011
 20
1014
 11
672.50000000000011
 21
1024
  0
LINE
  8
_0-4_
  6
CONTINUOUS
 62
    7
 10
684.00000000000011
 20
714
 11
685.5
 21
1004
  0
LINE
  8
_0-4_
  6
CONTINUOUS
 62
    7
 10
684.00000000000011
 20
714
 11
679.00000000000011
 21
714
  0
LINE
  8
_0-4_
  6
CONTINUOUS
 62
    7
 10
685.5
 20
1004
 11
679.00000000000011
 21
1004
  0
LINE
  8
_0-4_
  6
CONTINUOUS
 62
    7
 10
675.5
 20
1009
 11
675.5
 21
1014
  0
LINE
  8
_0-4_
  6
CONTINUOUS
 62
    7
 10
674.00000000000011
 20
704
 11
674.00000000000011
 21
709
  0
LINE
  8
_0-2_
  6
CONTINUOUS
 62
    7
 10
679.00000000000011
 20
574
 11
679.00000000000011
 21
571
  0
LINE
  8
_0-3_
  6
CONTINUOUS
 62
    7
 10
694.00000000000011
 20
375.49999999999989
 11
674.00000000000011
 21
375.49999999999989
  0
LINE
  8
_0-3_
  6
CONTINUOUS
 62
    7
 10
694.00000000000011
 20
375.49999999999989
 11
694.00000000000011
 21
374
  0
LINE
  8
_0-3_
  6
CONTINUOUS
 62
    7
 10
674.00000000000011
 20
374
 11
694.00000000000011
 21
374
  0
ARC
  8
_0-3_
  6
CONTINUOUS
 62
    7
 10
674.00000000000011
 20
375.49999999999989
 40
1.5000000000000002
 50
180
 51
270
  0
LINE
  8
_0-3_
  6
CONTINUOUS
 62
    7
 10
672.50000000000011
 20
377.00000000000011
 11
675.5
 21
377.00000000000011
  0
LINE
  8
_0-3_
  6
CONTINUOUS
 62
    7
 10
672.50000000000011
 20
374
 11
672.50000000000011
 21
377.00000000000011
  0
LINE
  8
_0-3_
  6
CONTINUOUS
 62
    7
 10
672.50000000000011
 20
569.50000000000011
 11
672.50000000000011
 21
571
  0
LINE
  8
_0-3_
  6
CONTINUOUS
 62
    7
 10
674.00000000000011
 20
569.50000000000011
 11
672.50000000000011
 21
569.50000000000011
  0
LINE
  8
_0-3_
  6
CONTINUOUS
 62
    7
 10
675.5
 20
569.50000000000011
 11
675.00000000000011
 21
569.50000000000011
  0
LINE
  8
_0-3_
  6
CONTINUOUS
 62
    7
 10
675.5
 20
569.50000000000011
 11
675.5
 21
504
  0
LINE
  8
_0-3_
  6
CONTINUOUS
 62
    7
 10
675.5
 20
454
 11
675.5
 21
377.00000000000011
  0
LINE
  8
_0-3_
  6
CONTINUOUS
 62
    7
 10
675.5
 20
494
 11
675.5
 21
464
  0
ARC
  8
_0-3_
  6
CONTINUOUS
 62
    7
 10
672.50000000000011
 20
569.50000000000011
 40
1.5000000000000002
 50
0
 51
90
  0
LINE
  8
_0-3_
  6
CONTINUOUS
 62
    7
 10
674.00000000000011
 20
570.00000000000011
 11
674.00000000000011
 21
375.49999999999989
  0
LINE
  8
_0-4_
  6
CONTINUOUS
 62
    7
 10
674.00000000000011
 20
454
 11
674.00000000000011
 21
504
  0
LINE
  8
_0-4_
  6
CONTINUOUS
 62
    7
 10
677.00000000000011
 20
504
 11
674.00000000000011
 21
504
  0
LINE
  8
_0-4_
  6
CONTINUOUS
 62
    7
 10
677.00000000000011
 20
454
 11
674.00000000000011
 21
454
  0
ARC
  8
_0-4_
  6
CONTINUOUS
 62
    7
 10
675.5
 20
495.49999999999989
 40
1.5000000000000002
 50
180
 51
270
  0
ARC
  8
_0-4_
  6
CONTINUOUS
 62
    7
 10
682.50000000000023
 20
494
 40
1.5000000000000002
 50
0
 51
90.000000000000014
  0
ARC
  8
_0-4_
  6
CONTINUOUS
 62
    7
 10
684.00000000000011
 20
494
 40
1.5000000000000002
 50
0
 51
90.000000000000014
  0
ARC
  8
_0-4_
  6
CONTINUOUS
 62
    7
 10
682.50000000000023
 20
464
 40
1.5000000000000002
 50
270
 51
0
  0
ARC
  8
_0-4_
  6
CONTINUOUS
 62
    7
 10
675.5
 20
462.50000000000011
 40
1.5000000000000002
 50
90
 51
180
  0
ARC
  8
_0-4_
  6
CONTINUOUS
 62
    7
 10
684.00000000000011
 20
464
 40
1.5000000000000002
 50
270
 51
0
  0
LINE
  8
_0-4_
  6
CONTINUOUS
 62
    7
 10
675.5
 20
504
 11
675.5
 21
495.49999999999989
  0
LINE
  8
_0-4_
  6
CONTINUOUS
 62
    7
 10
675.5
 20
494
 11
682.50000000000023
 21
494
  0
LINE
  8
_0-4_
  6
CONTINUOUS
 62
    7
 10
682.50000000000023
 20
494
 11
682.50000000000023
 21
464
  0
LINE
  8
_0-4_
  6
CONTINUOUS
 62
    7
 10
675.5
 20
464
 11
682.50000000000023
 21
464
  0
LINE
  8
_0-4_
  6
CONTINUOUS
 62
    7
 10
675.5
 20
462.50000000000011
 11
675.5
 21
454
  0
LINE
  8
_0-4_
  6
CONTINUOUS
 62
    7
 10
677.00000000000011
 20
504
 11
677.00000000000011
 21
495.49999999999989
  0
LINE
  8
_0-4_
  6
CONTINUOUS
 62
    7
 10
677.00000000000011
 20
462.50000000000011
 11
677.00000000000011
 21
454
  0
LINE
  8
_0-4_
  6
CONTINUOUS
 62
    7
 10
684.00000000000011
 20
464
 11
684.00000000000011
 21
494
  0
LINE
  8
_0-4_
  6
CONTINUOUS
 62
    7
 10
685.5
 20
464
 11
685.5
 21
494
  0
LINE
  8
_0-4_
  6
CONTINUOUS
 62
    7
 10
684.00000000000011
 20
462.50000000000011
 11
675.5
 21
462.50000000000011
  0
LINE
  8
_0-4_
  6
CONTINUOUS
 62
    7
 10
684.00000000000011
 20
495.49999999999989
 11
675.5
 21
495.49999999999989
  0
LINE
  8
_0-5_
  6
CONTINUOUS
 62
    7
 10
675.00000000000011
 20
570.00000000000011
 11
675.00000000000011
 21
562.00000000000011
  0
LINE
  8
_0-5_
  6
CONTINUOUS
 62
    7
 10
675.00000000000011
 20
562.00000000000011
 11
674.00000000000011
 21
562.00000000000011
  0
LINE
  8
_0-5_
  6
CONTINUOUS
 62
    7
 10
675.00000000000011
 20
570.00000000000011
 11
674.00000000000011
 21
570.00000000000011
  0
LINE
  8
_0-2_
  6
CONTINUOUS
 62
    7
 10
829
 20
574
 11
829
 21
571
  0
LINE
  8
_0-2_
  6
CONTINUOUS
 62
    7
 10
1129
 20
574
 11
1129
 21
571
  0
LINE
  8
_0-2_
  6
CONTINUOUS
 62
    7
 10
829
 20
574
 11
1129
 21
574
  0
LINE
  8
_0-2_
  6
CONTINUOUS
 62
    7
 10
829
 20
571
 11
1129
 21
571
  0
LINE
  8
_0-3_
  6
CONTINUOUS
 62
    7
 10
814
 20
375.49999999999989
 11
814
 21
374
  0
LINE
  8
_0-3_
  6
CONTINUOUS
 62
    7
 10
814
 20
375.49999999999989
 11
834
 21
375.49999999999989
  0
LINE
  8
_0-3_
  6
CONTINUOUS
 62
    7
 10
834
 20
374
 11
814
 21
374
  0
ARC
  8
_0-3_
  6
CONTINUOUS
 62
    7
 10
834
 20
375.49999999999989
 40
1.5000000000000002
 50
270
 51
0
  0
LINE
  8
_0-3_
  6
CONTINUOUS
 62
    7
 10
834
 20
377.00000000000011
 11
835.49999999999989
 21
377.00000000000011
  0
LINE
  8
_0-3_
  6
CONTINUOUS
 62
    7
 10
835.49999999999989
 20
374
 11
835.49999999999989
 21
377.00000000000011
  0
LINE
  8
_0-3_
  6
CONTINUOUS
 62
    7
 10
1124
 20
375.49999999999989
 11
1144
 21
375.49999999999989
  0
LINE
  8
_0-3_
  6
CONTINUOUS
 62
    7
 10
1144
 20
375.49999999999989
 11
1144
 21
374
  0
LINE
  8
_0-3_
  6
CONTINUOUS
 62
    7
 10
1124
 20
374
 11
1144
 21
374
  0
ARC
  8
_0-3_
  6
CONTINUOUS
 62
    7
 10
1124
 20
375.49999999999989
 40
1.5000000000000002
 50
180
 51
270
  0
LINE
  8
_0-3_
  6
CONTINUOUS
 62
    7
 10
1114
 20
377.00000000000011
 11
1124
 21
377.00000000000011
  0
LINE
  8
_0-3_
  6
CONTINUOUS
 62
    7
 10
1122.5
 20
374
 11
1122.5
 21
377.00000000000011
  0
ARC
  8
_0-3_
  6
CONTINUOUS
 62
    7
 10
835.49999999999989
 20
569.50000000000011
 40
1.5000000000000002
 50
90
 51
180
  0
LINE
  8
_0-3_
  6
CONTINUOUS
 62
    7
 10
835.49999999999989
 20
571
 11
835.49999999999989
 21
569.50000000000011
  0
LINE
  8
_0-3_
  6
CONTINUOUS
 62
    7
 10
835.49999999999989
 20
571
 11
1124
 21
571
  0
LINE
  8
_0-3_
  6
CONTINUOUS
 62
    7
 10
834
 20
569.50000000000011
 11
835.49999999999989
 21
569.50000000000011
  0
LINE
  8
_0-3_
  6
CONTINUOUS
 62
    7
 10
834
 20
569.50000000000011
 11
834
 21
375.49999999999989
  0
LINE
  8
_0-3_
  6
CONTINUOUS
 62
    7
 10
1124
 20
571
 11
1124
 21
375.49999999999989
  0
LINE
  8
_0-3_
  6
CONTINUOUS
 62
    7
 10
1114
 20
454
 11
1114
 21
377.00000000000011
  0
LINE
  8
_0-3_
  6
CONTINUOUS
 62
    7
 10
1114
 20
571
 11
1114
 21
504
  0
LINE
  8
_0-4_
  6
CONTINUOUS
 62
    7
 10
832.50000000000011
 20
454
 11
834
 21
454
  0
LINE
  8
_0-4_
  6
CONTINUOUS
 62
    7
 10
832.50000000000011
 20
504
 11
834
 21
504
  0
LINE
  8
_0-4_
  6
CONTINUOUS
 62
    7
 10
1125.5
 20
504
 11
1124
 21
504
  0
LINE
  8
_0-4_
  6
CONTINUOUS
 62
    7
 10
1125.5
 20
454
 11
1124
 21
454
  0
LINE
  8
_0-4_
  6
CONTINUOUS
 62
    7
 10
1124
 20
504
 11
834
 21
504
  0
LINE
  8
_0-4_
  6
CONTINUOUS
 62
    7
 10
1124
 20
454
 11
834
 21
454
  0
ARC
  8
_0-4_
  6
CONTINUOUS
 62
    7
 10
825.49999999999989
 20
494
 40
1.5000000000000002
 50
90
 51
180
  0
ARC
  8
_0-4_
  6
CONTINUOUS
 62
    7
 10
832.50000000000011
 20
495.49999999999989
 40
1.5000000000000002
 50
270
 51
0
  0
ARC
  8
_0-4_
  6
CONTINUOUS
 62
    7
 10
1125.5
 20
495.49999999999989
 40
1.5000000000000002
 50
180
 51
270
  0
ARC
  8
_0-4_
  6
CONTINUOUS
 62
    7
 10
1132.5
 20
494
 40
1.5000000000000002
 50
0
 51
90.000000000000014
  0
LINE
  8
_0-4_
  6
CONTINUOUS
 62
    7
 10
1124
 20
495.49999999999989
 11
834
 21
495.49999999999989
  0
ARC
  8
_0-4_
  6
CONTINUOUS
 62
    7
 10
825.49999999999989
 20
464
 40
1.5000000000000002
 50
180
 51
270
  0
ARC
  8
_0-4_
  6
CONTINUOUS
 62
    7
 10
832.50000000000011
 20
462.50000000000011
 40
1.5000000000000002
 50
0
 51
90
  0
ARC
  8
_0-4_
  6
CONTINUOUS
 62
    7
 10
1132.5
 20
464
 40
1.5000000000000002
 50
270
 51
0
  0
ARC
  8
_0-4_
  6
CONTINUOUS
 62
    7
 10
1125.5
 20
462.50000000000011
 40
1.5000000000000002
 50
90
 51
180
  0
LINE
  8
_0-4_
  6
CONTINUOUS
 62
    7
 10
1124
 20
462.50000000000011
 11
834
 21
462.50000000000011
  0
LINE
  8
_0-4_
  6
CONTINUOUS
 62
    7
 10
1125.5
 20
504
 11
1125.5
 21
495.49999999999989
  0
LINE
  8
_0-4_
  6
CONTINUOUS
 62
    7
 10
1132.5
 20
495.49999999999989
 11
1125.5
 21
495.49999999999989
  0
LINE
  8
_0-4_
  6
CONTINUOUS
 62
    7
 10
1125.5
 20
494
 11
1132.5
 21
494
  0
LINE
  8
_0-4_
  6
CONTINUOUS
 62
    7
 10
1132.5
 20
494
 11
1132.5
 21
464
  0
LINE
  8
_0-4_
  6
CONTINUOUS
 62
    7
 10
1125.5
 20
464
 11
1132.5
 21
464
  0
LINE
  8
_0-4_
  6
CONTINUOUS
 62
    7
 10
1132.5
 20
462.50000000000011
 11
1125.5
 21
462.50000000000011
  0
LINE
  8
_0-4_
  6
CONTINUOUS
 62
    7
 10
1125.5
 20
462.50000000000011
 11
1125.5
 21
454
  0
LINE
  8
_0-4_
  6
CONTINUOUS
 62
    7
 10
1124
 20
504
 11
1124
 21
454
  0
LINE
  8
_0-4_
  6
CONTINUOUS
 62
    7
 10
1134
 20
464
 11
1134
 21
494
  0
LINE
  8
_0-4_
  6
CONTINUOUS
 62
    7
 10
832.50000000000011
 20
495.49999999999989
 11
832.50000000000011
 21
504
  0
LINE
  8
_0-4_
  6
CONTINUOUS
 62
    7
 10
825.49999999999989
 20
495.49999999999989
 11
832.50000000000011
 21
495.49999999999989
  0
LINE
  8
_0-4_
  6
CONTINUOUS
 62
    7
 10
832.50000000000011
 20
494
 11
825.49999999999989
 21
494
  0
LINE
  8
_0-4_
  6
CONTINUOUS
 62
    7
 10
825.49999999999989
 20
464
 11
825.49999999999989
 21
494
  0
LINE
  8
_0-4_
  6
CONTINUOUS
 62
    7
 10
832.50000000000011
 20
464
 11
825.49999999999989
 21
464
  0
LINE
  8
_0-4_
  6
CONTINUOUS
 62
    7
 10
825.49999999999989
 20
462.50000000000011
 11
832.50000000000011
 21
462.50000000000011
  0
LINE
  8
_0-4_
  6
CONTINUOUS
 62
    7
 10
832.50000000000011
 20
454
 11
832.50000000000011
 21
462.50000000000011
  0
LINE
  8
_0-4_
  6
CONTINUOUS
 62
    7
 10
834
 20
504
 11
834
 21
454
  0
LINE
  8
_0-4_
  6
CONTINUOUS
 62
    7
 10
824
 20
494
 11
824
 21
464
  0
CIRCLE
  8
_0-5_
  6
CONTINUOUS
 62
    7
 10
1092.0001806443627
 20
566
 40
4
  0
LINE
  8
_0-0_
  6
CONTINUOUS
 62
    2
 10
663
 20
1052
 11
651.40889008453121
 21
1055.1058285412303
  0
LINE
  8
_0-0_
  6
CONTINUOUS
 62
    2
 10
663
 20
1052
 11
651.40889008453121
 21
1048.8941714587697
  0
LINE
  8
_0-0_
  6
CONTINUOUS
 62
    2
 10
663
 20
1056
 11
663
 21
996.99999999999989
  0
LINE
  8
_0-0_
  6
CONTINUOUS
 62
    2
 10
679.00000000000011
 20
1080
 11
667.40889008453132
 21
1083.1058285412303
  0
LINE
  8
_0-0_
  6
CONTINUOUS
 62
    2
 10
679.00000000000011
 20
1080
 11
667.40889008453132
 21
1076.8941714587697
  0
LINE
  8
_0-0_
  6
CONTINUOUS
 62
    2
 10
679.00000000000011
 20
1084
 11
679.00000000000011
 21
1013
  0
LINE
  8
_0-0_
  6
CONTINUOUS
 62
    7
 10
679.00000000000011
 20
572.5
 11
687.48528137423864
 21
580.98528137423853
  0
LINE
  8
_0-0_
  6
CONTINUOUS
 62
    7
 10
679.00000000000011
 20
572.5
 11
690.59110991546891
 21
575.60582854123027
  0
LINE
  8
_0-0_
  6
CONTINUOUS
 62
    7
 10
675.5
 20
525.75
 11
683.98528137423864
 21
534.23528137423853
  0
LINE
  8
_0-0_
  6
CONTINUOUS
 62
    7
 10
675.5
 20
525.75
 11
687.09110991546879
 21
528.85582854123027
  0
LINE
  8
_0-0_
  6
CONTINUOUS
 62
    7
 10
685.5
 20
479
 11
693.98528137423864
 21
487.48528137423858
  0
LINE
  8
_0-0_
  6
CONTINUOUS
 62
    7
 10
685.5
 20
479
 11
697.09110991546879
 21
482.10582854123027
  0
CIRCLE
  8
_0-0_
  6
CONTINUOUS
 62
    7
 10
734
 20
507.00148805569683
 40
12
  0
TEXT
  8
_0-0_
 62
    7
 10
724
 20
497.00148805569694
 40
20
 41
1
 50
0
  1
４
  0
CIRCLE
  8
_0-0_
  6
CONTINUOUS
 62
    7
 10
734
 20
559.52499074759305
 40
12
  0
TEXT
  8
_0-0_
 62
    7
 10
724
 20
549.52499074759305
 40
20
 41
1
 50
0
  1
３
  0
CIRCLE
  8
_0-0_
  6
CONTINUOUS
 62
    7
 10
734
 20
604.25426480542933
 40
12
  0
TEXT
  8
_0-0_
 62
    7
 10
724
 20
594.25426480542933
 40
20
 41
1
 50
0
  1
２
  0
LINE
  8
_0-0_
  6
CONTINUOUS
 62
    7
 10
685.5
 20
479
 11
723.60769515458674
 21
501.00148805569688
  0
LINE
  8
_0-0_
  6
CONTINUOUS
 62
    7
 10
675.5
 20
525.75
 11
723.60769515458674
 21
553.52499074759305
  0
LINE
  8
_0-0_
  6
CONTINUOUS
 62
    7
 10
679.00000000000011
 20
572.5
 11
723.60769515458674
 21
598.25426480542933
  0
CIRCLE
  8
_0-0_
  6
CONTINUOUS
 62
    7
 10
1119.7129935654648
 20
614
 40
12
  0
TEXT
  8
_0-0_
 62
    7
 10
1109.7129935654648
 20
604
 40
20
 41
1
 50
0
  1
５
  0
LINE
  8
_0-0_
  6
CONTINUOUS
 62
    7
 10
1094.0001806443627
 20
569.46410161513779
 11
1097.1060091855929
 21
581.05521153060658
  0
LINE
  8
_0-0_
  6
CONTINUOUS
 62
    7
 10
1094.0001806443627
 20
569.46410161513779
 11
1102.4854620186013
 21
577.94938298937632
  0
LINE
  8
_0-0_
  6
CONTINUOUS
 62
    7
 10
1094.0001806443627
 20
569.46410161513779
 11
1113.7129935654648
 21
603.60769515458674
  0
LINE
  8
_0-0_
  6
CONTINUOUS
 62
    2
 10
694.00000000000011
 20
294
 11
682.40889008453132
 21
297.10582854123027
  0
LINE
  8
_0-0_
  6
CONTINUOUS
 62
    2
 10
694.00000000000011
 20
294
 11
682.40889008453132
 21
290.89417145876973
  0
LINE
  8
_0-0_
  6
CONTINUOUS
 62
    2
 10
694.00000000000011
 20
290
 11
694.00000000000011
 21
370
  0
LINE
  8
_0-0_
  6
CONTINUOUS
 62
    2
 10
814
 20
294
 11
825.59110991546879
 21
297.10582854123027
  0
LINE
  8
_0-0_
  6
CONTINUOUS
 62
    2
 10
814
 20
294
 11
825.59110991546879
 21
290.89417145876973
  0
LINE
  8
_0-0_
  6
CONTINUOUS
 62
    2
 10
1144
 20
294
 11
1132.4088900845313
 21
297.10582854123027
  0
LINE
  8
_0-0_
  6
CONTINUOUS
 62
    2
 10
1144
 20
294
 11
1132.4088900845313
 21
290.89417145876973
  0
LINE
  8
_0-0_
  6
CONTINUOUS
 62
    2
 10
814
 20
290
 11
814
 21
370
  0
LINE
  8
_0-0_
  6
CONTINUOUS
 62
    2
 10
1144
 20
290
 11
1144
 21
370
  0
LINE
  8
_0-0_
  6
CONTINUOUS
 62
    2
 10
814
 20
294
 11
1144
 21
294
  0
TEXT
  8
_0-0_
 62
    7
 10
963
 20
296
 40
20
 41
1
 50
0
  1
330
  0
LINE
  8
_0-0_
  6
CONTINUOUS
 62
    2
 10
179
 20
1080
 11
679.00000000000011
 21
1080
  0
TEXT
  8
_0-0_
 62
    7
 10
413.00000000000006
 20
1082
 40
20
 41
1
 50
0
  1
500
  0
LINE
  8
_0-0_
  6
CONTINUOUS
 62
    2
 10
195.00000000000011
 20
1052
 11
663
 21
1052
  0
TEXT
  8
_0-0_
 62
    7
 10
413.00000000000006
 20
1054
 40
20
 41
1
 50
0
  1
468
  0
LINE
  8
_0-3_
  6
CONTINUOUS
 62
    7
 10
672.50000000000011
 20
1024
 11
185.5
 21
1024
  0
LINE
  8
_0-4_
  6
CONTINUOUS
 62
    7
 10
675.5
 20
1014
 11
182.50000000000011
 21
1014
  0
LINE
  8
_0-2_
  6
CONTINUOUS
 62
    7
 10
679.00000000000011
 20
1009
 11
179
 21
1009
  0
LINE
  8
_0-1_
  6
CONTINUOUS
 62
    7
 10
663
 20
992.99999999999989
 11
195.00000000000011
 21
992.99999999999989
  0
LINE
  8
_0-2_
  6
CONTINUOUS
 62
    7
 10
664.00000000000011
 20
994
 11
194
 21
994
  0
LINE
  8
_0-1_
  6
CONTINUOUS
 62
    7
 10
663
 20
725
 11
195.00000000000011
 21
725
  0
LINE
  8
_0-2_
  6
CONTINUOUS
 62
    7
 10
664.00000000000011
 20
724
 11
194
 21
724
  0
LINE
  8
_0-2_
  6
CONTINUOUS
 62
    7
 10
679.00000000000011
 20
709
 11
179
 21
709
  0
LINE
  8
_0-4_
  6
CONTINUOUS
 62
    7
 10
674.00000000000011
 20
704
 11
184
 21
704
  0
LINE
  8
_0-3_
  6
CONTINUOUS
 62
    7
 10
652.00000000000011
 20
694
 11
206
 21
694
  0
LINE
  8
_0-2_
  6
CONTINUOUS
 62
    7
 10
679.00000000000011
 20
574
 11
179
 21
574
  0
LINE
  8
_0-2_
  6
CONTINUOUS
 62
    7
 10
679.00000000000011
 20
571
 11
179
 21
571
  0
LINE
  8
_0-3_
  6
CONTINUOUS
 62
    7
 10
679.00000000000011
 20
571
 11
185.5
 21
571
  0
LINE
  8
_0-4_
  6
CONTINUOUS
 62
    7
 10
674.00000000000011
 20
504
 11
184
 21
504
  0
LINE
  8
_0-4_
  6
CONTINUOUS
 62
    7
 10
674
 20
495.49999999999989
 11
184
 21
495.49999999999989
  0
LINE
  8
_0-4_
  6
CONTINUOUS
 62
    7
 10
674.00000000000011
 20
462.50000000000011
 11
184
 21
462.50000000000011
  0
LINE
  8
_0-4_
  6
CONTINUOUS
 62
    7
 10
674.00000000000011
 20
454
 11
184
 21
454
  0
LINE
  8
_0-3_
  6
CONTINUOUS
 62
    7
 10
672.50000000000011
 20
375.49999999999989
 11
185.5
 21
375.49999999999989
  0
LINE
  8
_0-3_
  6
CONTINUOUS
 62
    7
 10
672.50000000000011
 20
374
 11
185.5
 21
374
  0
LINE
  8
_0-0_
  6
CONTINUOUS
 62
    2
 10
164
 20
294
 11
694.00000000000011
 21
294
  0
TEXT
  8
_0-0_
 62
    7
 10
413.00000000000006
 20
296
 40
20
 41
1
 50
0
  1
530
  0
TEXT
  8
_0-f_
 62
    7
 10
1276
 20
42
 40
18
 41
1
 50
0
  1
ＳＢ４０－２
  0
TEXT
  8
_0-f_
 62
    7
 10
1141.5
 20
78
 40
14
 41
1
 50
0
  1
2019.02.04.
  0
ARC
  8
_0-3_
  6
CONTINUOUS
 62
    7
 10
979
 20
419
 40
30
 50
0
 51
180
  0
LINE
  8
_0-3_
  6
CONTINUOUS
 62
    7
 10
835.49999999999989
 20
375.49999999999989
 11
949
 21
375.49999999999989
  0
LINE
  8
_0-3_
  6
CONTINUOUS
 62
    7
 10
949
 20
419
 11
949
 21
374
  0
LINE
  8
_0-3_
  6
CONTINUOUS
 62
    7
 10
835.49999999999989
 20
374
 11
949
 21
374
  0
LINE
  8
_0-3_
  6
CONTINUOUS
 62
    7
 10
1009
 20
375.49999999999989
 11
1122.5
 21
375.49999999999989
  0
LINE
  8
_0-3_
  6
CONTINUOUS
 62
    7
 10
1009
 20
419
 11
1009
 21
374
  0
LINE
  8
_0-3_
  6
CONTINUOUS
 62
    7
 10
1009
 20
374
 11
1122.5
 21
374
  0
LINE
  8
_0-0_
  6
CONTINUOUS
 62
    2
 10
949
 20
322
 11
960.59110991546879
 21
325.10582854123027
  0
LINE
  8
_0-0_
  6
CONTINUOUS
 62
    2
 10
949
 20
322
 11
960.59110991546879
 21
318.89417145876973
  0
LINE
  8
_0-0_
  6
CONTINUOUS
 62
    2
 10
1009
 20
322
 11
997.40889008453121
 21
325.10582854123027
  0
LINE
  8
_0-0_
  6
CONTINUOUS
 62
    2
 10
1009
 20
322
 11
997.40889008453121
 21
318.89417145876973
  0
LINE
  8
_0-0_
  6
CONTINUOUS
 62
    2
 10
949
 20
318
 11
949
 21
370
  0
LINE
  8
_0-0_
  6
CONTINUOUS
 62
    2
 10
1009
 20
318
 11
1009
 21
370
  0
LINE
  8
_0-0_
  6
CONTINUOUS
 62
    2
 10
949
 20
322
 11
1009
 21
322
  0
TEXT
  8
_0-0_
 62
    7
 10
968.5
 20
324
 40
20
 41
1
 50
0
  1
60
  0
LINE
  8
_0-0_
  6
CONTINUOUS
 62
    2
 10
921
 20
374
 11
917.89417145876973
 21
385.59110991546879
  0
LINE
  8
_0-0_
  6
CONTINUOUS
 62
    2
 10
921
 20
374
 11
924.10582854123027
 21
385.59110991546879
  0
LINE
  8
_0-0_
  6
CONTINUOUS
 62
    2
 10
921
 20
449
 11
917.89417145876973
 21
437.40889008453121
  0
LINE
  8
_0-0_
  6
CONTINUOUS
 62
    2
 10
921
 20
449
 11
924.10582854123027
 21
437.40889008453121
  0
LINE
  8
_0-0_
  6
CONTINUOUS
 62
    2
 10
917
 20
449
 11
975
 21
449
  0
LINE
  8
_0-0_
  6
CONTINUOUS
 62
    2
 10
921
 20
374
 11
921
 21
449
  0
TEXT
  8
_0-0_
 62
    7
 10
919
 20
401
 40
20
 41
1
 50
90
  1
75
  0
LINE
  8
_0-3_
  6
CONTINUOUS
 62
    7
 10
164
 20
889
 11
164
 21
1002.5
  0
LINE
  8
_0-3_
  6
CONTINUOUS
 62
    7
 10
164
 20
735.99999999999989
 11
164
 21
829
  0
LINE
  8
_0-3_
  6
CONTINUOUS
 62
    7
 10
694.00000000000011
 20
735.99999999999989
 11
694.00000000000011
 21
829
  0
LINE
  8
_0-3_
  6
CONTINUOUS
 62
    7
 10
694.00000000000011
 20
889
 11
694.00000000000011
 21
1002.5
  0
LINE
  8
_0-0_
  6
CONTINUOUS
 62
    7
 10
164
 20
889
 11
173.09482758620697
 21
889
  0
LINE
  8
_0-0_
  6
CONTINUOUS
 62
    7
 10
684.90517241379314
 20
889
 11
694.00000000000011
 21
889
  0
LINE
  8
_0-0_
  6
CONTINUOUS
 62
    7
 10
164
 20
829
 11
173.40517241379314
 21
829
  0
LINE
  8
_0-0_
  6
CONTINUOUS
 62
    7
 10
684.59482758620697
 20
829
 11
694.00000000000011
 21
829
  0
POINT
  8
_0-0_
 62
    2
 10
639.00000000000011
 20
839
  0
LINE
  8
_0-0_
  6
CONTINUOUS
 62
    7
 10
639.00000000000011
 20
839
 11
723.60769515458674
 21
887.84827557301435
  0
CIRCLE
  8
_0-0_
  6
CONTINUOUS
 62
    7
 10
734
 20
893.84827557301435
 40
12
  0
TEXT
  8
_0-0_
 62
    7
 10
724
 20
883.84827557301435
 40
20
 41
1
 50
0
  1
１
  0
TEXT
  8
_0-f_
 62
    7
 10
1324
 20
396
 40
16
 41
1
 50
0
  1
※ 表面ヘアーライン仕上げ
  0
ENDSEC
  0
EOF
