  0
SECTION
  2
HEADER
  9
$ACADVER
  1
AC1009
  9
$INSBASE
 10
0
 20
0
 30
0
  9
$EXTMIN
 10
0
 20
0
  9
$EXTMAX
 10
1680
 20
1188
  9
$LIMMIN
 10
0
 20
0
  9
$LIMMAX
 10
1680
 20
1188
  9
$LTSCALE
 40
4
  0
ENDSEC
  0
SECTION
  2
TABLES
  0
TABLE
  2
LTYPE
 70
     9
  0
LTYPE
  2
CONTINUOUS
 70
    64
  3
実線
 72
    65
 73
     0
 40
0.0
  0
LTYPE
  2
DASHED1
 70
    64
  3
--  --  --  --  --  --  --  --  
 72
    65
 73
     2
 40
2.5
 49
1.25
 49
-1.25
  0
LTYPE
  2
DASHED2
 70
    64
  3
----    ----    ----    ----    
 72
    65
 73
     2
 40
5.0
 49
2.5
 49
-2.5
  0
LTYPE
  2
DASHED3
 70
    64
  3
------  ------  ------  ------  
 72
    65
 73
     2
 40
5.0
 49
3.75
 49
-1.25
  0
LTYPE
  2
CENTER1
 70
    64
  3
----- - ----- - ----- - ----- - 
 72
    65
 73
     4
 40
10.0
 49
6.25
 49
-1.25
 49
1.25
 49
-1.25
  0
LTYPE
  2
CENTER2
 70
    64
  3
----------  --  ----------  --  
 72
    65
 73
     4
 40
20.0
 49
12.5
 49
-2.5
 49
2.5
 49
-2.5
  0
LTYPE
  2
PHANTOM1
 70
    64
  3
--- - - --- - - --- - - --- - - 
 72
    65
 73
     6
 40
10.0
 49
3.25
 49
-1.25
 49
1.25
 49
-1.25
 49
1.25
 49
-1.25
  0
LTYPE
  2
PHANTOM2
 70
    64
  3
--------  -  -  --------  -  -  
 72
    65
 73
     6
 40
20.0
 49
10.0
 49
-2.5
 49
1.25
 49
-2.5
 49
1.25
 49
-2.5
  0
LTYPE
  2
DOT
 70
    64
  3
-   -   -   -   -   -   -   -   
 72
    65
 73
     2
 40
2.5
 49
0.625
 49
-1.875
  0
LTYPE
  2
DUMMY
 70
    64
  3
ダミー
 72
    65
 73
     0
 40
0.0
  0
LTYPE
  2
RAND1
 70
    64
  3
ランダム線1
 72
    65
 73
     4
 40
10.0
 49
1.0
 49
-2.0
 49
3.0
 49
-4.0
  0
LTYPE
  2
RAND2
 70
    64
  3
ランダム線2
 72
    65
 73
     4
 40
14.0
 49
2.0
 49
-3.0
 49
4.0
 49
-5.0
  0
LTYPE
  2
RAND3
 70
    64
  3
ランダム線3
 72
    65
 73
     4
 40
18.0
 49
3.0
 49
-4.0
 49
5.0
 49
-6.0
  0
LTYPE
  2
RAND4
 70
    64
  3
ランダム線4
 72
    65
 73
     4
 40
22.0
 49
4.0
 49
-5.0
 49
6.0
 49
-7.0
  0
LTYPE
  2
RAND5
 70
    64
  3
ランダム線5
 72
    65
 73
     4
 40
26.0
 49
5.0
 49
-6.0
 49
7.0
 49
-8.0
  0
LTYPE
  2
LONG1
 70
    64
  3
----------  --  ----------  --  
 72
    65
 73
     4
 40
40.0
 49
32.5
 49
-2.5
 49
2.5
 49
-2.5
  0
LTYPE
  2
LONG2
 70
    64
  3
--------  -  -  --------  -  -  
 72
    65
 73
     6
 40
40.0
 49
30.0
 49
-2.5
 49
1.25
 49
-2.5
 49
1.25
 49
-2.5
  0
LTYPE
  2
LONG3
 70
    64
  3
+++++++++++++++..+++++++++++++++
 72
    65
 73
     2
 40
40.0
 49
37.5
 49
-2.5
  0
LTYPE
  2
LONG4
 70
    64
  3
+++++++++++++++..+++++++++++++++
 72
    65
 73
     2
 40
80.0
 49
75.0
 49
-5.0
  0
LTYPE
  2
LONG5
 70
    64
  3
----------  --  ----------  --  
 72
    65
 73
     4
 40
60.0
 49
37.5
 49
-7.5
 49
7.5
 49
-7.5
  0
LTYPE
  2
dashed
 70
   64
  3
-------   -------------   ------
 72
   65
 73
    2
 40
7.5
 49
6
 49
-1.5
  0
LTYPE
  2
dashed_spaced
 70
   64
  3
----        --------        ----
 72
   65
 73
    2
 40
12
 49
6
 49
-6
  0
LTYPE
  2
long_dashed_dotted
 70
   64
  3
------------- --- --------------
 72
   65
 73
    4
 40
15.25
 49
12
 49
-1.5
 49
0.25
 49
-1.5
  0
LTYPE
  2
long_dashed_double-dotted
 70
   64
  3
----------- --- --- ------------
 72
   65
 73
    6
 40
17
 49
12
 49
-1.5
 49
0.25
 49
-1.5
 49
0.25
 49
-1.5
  0
LTYPE
  2
long_dashed_triplicate-dotted
 70
   64
  3
--------- --- --- --- ----------
 72
   65
 73
    8
 40
18.75
 49
12
 49
-1.5
 49
0.25
 49
-1.5
 49
0.25
 49
-1.5
 49
0.25
 49
-1.5
  0
LTYPE
  2
dotted
 70
   64
  3
   -       -       -       -    
 72
   65
 73
    2
 40
1.75
 49
0.25
 49
-1.5
  0
LTYPE
  2
chain
 70
   64
  3
-------------- -- --------------
 72
   65
 73
    4
 40
18.5
 49
12
 49
-1.5
 49
3.5
 49
-1.5
  0
LTYPE
  2
chain_double_dash
 70
   64
  3
------------ -- -- -------------
 72
   65
 73
    6
 40
23.5
 49
12
 49
-1.5
 49
3.5
 49
-1.5
 49
3.5
 49
-1.5
  0
LTYPE
  2
dashed_dotted
 70
   64
  3
-----------     -     ----------
 72
   65
 73
    4
 40
9.25
 49
6
 49
-1.5
 49
0.25
 49
-1.5
  0
LTYPE
  2
double-dashed_dotted
 70
   64
  3
------   -----------   -   -----
 72
   65
 73
    6
 40
16.75
 49
6
 49
-1.5
 49
6
 49
-1.5
 49
0.25
 49
-1.5
  0
LTYPE
  2
dashed_double-dotted
 70
   64
  3
---------    -    -    ---------
 72
   65
 73
    6
 40
11
 49
6
 49
-1.5
 49
0.25
 49
-1.5
 49
0.25
 49
-1.5
  0
LTYPE
  2
double-dashed_double-dotted
 70
   64
  3
-----   ---------   -   -   ----
 72
   65
 73
    8
 40
18.5
 49
6
 49
-1.5
 49
6
 49
-1.5
 49
0.25
 49
-1.5
 49
0.25
 49
-1.5
  0
LTYPE
  2
dashed_triplicate-dotted
 70
   64
  3
-------    -    -    -    ------
 72
   65
 73
    8
 40
12.75
 49
6
 49
-1.5
 49
0.25
 49
-1.5
 49
0.25
 49
-1.5
 49
0.25
 49
-1.5
  0
LTYPE
  2
double-dashed_triplicate-dotted
 70
   64
  3
-----  ---------  -  -  -  -----
 72
   65
 73
   10
 40
20.25
 49
6
 49
-1.5
 49
6
 49
-1.5
 49
0.25
 49
-1.5
 49
0.25
 49
-1.5
 49
0.25
 49
-1.5
  0
LTYPE
  2
undefined
 70
   64
  3
--------------------------------
 72
   65
 73
    0
 40
0
  0
LTYPE
  2
_
 70
   64
  3
                                
 72
   65
 73
    0
 40
0
  0
LTYPE
  2
__18
 70
   64
  3
                                
 72
   65
 73
    0
 40
0
  0
LTYPE
  2
__19
 70
   64
  3
                                
 72
   65
 73
    0
 40
0
  0
LTYPE
  2
__20
 70
   64
  3
                                
 72
   65
 73
    0
 40
0
  0
LTYPE
  2
__21
 70
   64
  3
                                
 72
   65
 73
    0
 40
0
  0
LTYPE
  2
__22
 70
   64
  3
                                
 72
   65
 73
    0
 40
0
  0
LTYPE
  2
__23
 70
   64
  3
                                
 72
   65
 73
    0
 40
0
  0
LTYPE
  2
__24
 70
   64
  3
                                
 72
   65
 73
    0
 40
0
  0
LTYPE
  2
__25
 70
   64
  3
                                
 72
   65
 73
    0
 40
0
  0
LTYPE
  2
__26
 70
   64
  3
                                
 72
   65
 73
    0
 40
0
  0
LTYPE
  2
__27
 70
   64
  3
                                
 72
   65
 73
    0
 40
0
  0
LTYPE
  2
__28
 70
   64
  3
                                
 72
   65
 73
    0
 40
0
  0
LTYPE
  2
__29
 70
   64
  3
                                
 72
   65
 73
    0
 40
0
  0
LTYPE
  2
__30
 70
   64
  3
                                
 72
   65
 73
    0
 40
0
  0
LTYPE
  2
__31
 70
   64
  3
                                
 72
   65
 73
    0
 40
0
  0
LTYPE
  2
__32
 70
   64
  3
                                
 72
   65
 73
    0
 40
0
  0
ENDTAB
  0
TABLE
  2
STYLE
  5
3
100
AcDbSymbolTable
 70
     1
  0
STYLE
  5
10
100
AcDbSymbolTableRecord
100
AcDbTextStyleTableRecord
  2
STANDARD
 70
     0
 40
0.0
 41
1.0
 50
0.0
 71
     0
 42
0.2
  3
txt
  4
bigfont.shx
  0
STYLE
  5
26
100
AcDbSymbolTableRecord
100
AcDbTextStyleTableRecord
  2
TATEGAKI
 70
    68
 40
0.0
 41
1.0
 50
0.0
 71
     0
 42
1.0
  3
txt
  4
bigfont.shx
  0
ENDTAB
  0
TABLE
  2
LAYER
 70
    8
  0
LAYER
  2
_0-0_
 70
   64
 62
    7
  6
CONTINUOUS
  0
LAYER
  2
_0-1_
 70
   64
 62
    7
  6
CONTINUOUS
  0
LAYER
  2
_0-2_
 70
   64
 62
    7
  6
CONTINUOUS
  0
LAYER
  2
_0-3_
 70
   64
 62
    7
  6
CONTINUOUS
  0
LAYER
  2
_0-4_
 70
   64
 62
    7
  6
CONTINUOUS
  0
LAYER
  2
_0-5_
 70
   64
 62
    7
  6
CONTINUOUS
  0
LAYER
  2
_0-f_
 70
   64
 62
    7
  6
CONTINUOUS
  0
LAYER
  2
ADD_LINE
 70
   64
 62
    7
  6
CONTINUOUS
  0
ENDTAB
  0
ENDSEC
  0
SECTION
  2
BLOCKS
  0
ENDSEC
  0
SECTION
  2
ENTITIES
  0
LINE
  8
_0-f_
  6
CONTINUOUS
 62
    3
 10
40
 20
40
 11
1640
 21
40
  0
LINE
  8
_0-f_
  6
CONTINUOUS
 62
    3
 10
1640
 20
40
 11
1640
 21
1148
  0
LINE
  8
_0-f_
  6
CONTINUOUS
 62
    3
 10
1640
 20
1148
 11
40
 21
1148
  0
LINE
  8
_0-f_
  6
CONTINUOUS
 62
    3
 10
40
 20
1148
 11
40
 21
40
  0
LINE
  8
_0-f_
  6
CONTINUOUS
 62
    7
 10
880
 20
76
 11
1640
 21
76
  0
LINE
  8
_0-f_
  6
CONTINUOUS
 62
    7
 10
880
 20
148
 11
1640
 21
148
  0
LINE
  8
_0-f_
  6
CONTINUOUS
 62
    7
 10
880
 20
40
 11
880
 21
184
  0
LINE
  8
_0-f_
  6
CONTINUOUS
 62
    7
 10
880
 20
184
 11
1640
 21
184
  0
LINE
  8
_0-f_
  6
CONTINUOUS
 62
    7
 10
1572
 20
40
 11
1572
 21
76
  0
LINE
  8
_0-f_
  6
CONTINUOUS
 62
    7
 10
1260
 20
76
 11
1260
 21
184
  0
LINE
  8
_0-f_
  6
CONTINUOUS
 62
    7
 10
1540
 20
112
 11
1540
 21
184
  0
LINE
  8
_0-f_
  6
CONTINUOUS
 62
    7
 10
1040
 20
76
 11
1040
 21
148
  0
LINE
  8
_0-f_
  6
CONTINUOUS
 62
    7
 10
960
 20
76
 11
960
 21
148
  0
LINE
  8
_0-f_
  6
CONTINUOUS
 62
    7
 10
1120
 20
112
 11
1640
 21
112
  0
LINE
  8
_0-f_
  6
CONTINUOUS
 62
    7
 10
1120
 20
40
 11
1120
 21
148
  0
TEXT
  8
_0-f_
 62
    7
 10
884
 20
168
 40
12
 41
0.6666666666666666
 50
0
  1
注
  0
TEXT
  8
_0-f_
 62
    7
 10
1264
 20
168
 40
12
 41
0.6666666666666666
 50
0
  1
材質　MATERIAL
  0
POINT
  8
_0-f_
 62
    9
 10
908
 20
150
  0
POINT
  8
_0-f_
 62
    9
 10
1296
 20
150
  0
POINT
  8
_0-f_
 62
    9
 10
1264
 20
168
  0
TEXT
  8
_0-f_
 62
    7
 10
1544
 20
168
 40
12
 41
0.6666666666666666
 50
0
  1
個数　QUANTITY
  0
TEXT
  8
_0-f_
 62
    7
 10
884
 20
132
 40
12
 41
0.6666666666666666
 50
0
  1
APPROVED
  0
TEXT
  8
_0-f_
 62
    7
 10
964
 20
132
 40
12
 41
0.6666666666666666
 50
0
  1
CHECKED
  0
TEXT
  8
_0-f_
 62
    7
 10
1044
 20
132
 40
12
 41
0.6666666666666666
 50
0
  1
DESIGNER
  0
TEXT
  8
_0-f_
 62
    7
 10
1124
 20
132
 40
12
 41
0.6666666666666666
 50
0
  1
図面サイズ　SIZU
  0
TEXT
  8
_0-f_
 62
    7
 10
1124
 20
96
 40
12
 41
0.6666666666666666
 50
0
  1
日付　DATE
  0
TEXT
  8
_0-f_
 62
    7
 10
1264
 20
132
 40
12
 41
0.6666666666666666
 50
0
  1
表面処理　SURFACE TREATMENT
  0
TEXT
  8
_0-f_
 62
    7
 10
1544
 20
132
 40
12
 41
0.6666666666666666
 50
0
  1
尺度　SCALE
  0
TEXT
  8
_0-f_
 62
    7
 10
1124
 20
58
 40
14
 41
0.7142857142857143
 50
0
  1
図　　番
  0
TEXT
  8
_0-f_
 62
    7
 10
1174
 20
64
 40
8
 41
1
 50
0
  1
DRAWING No
  0
TEXT
  8
_0-f_
 62
    7
 10
1296
 20
150
 40
14
 41
1
 50
0
  1
別記
  0
TEXT
  8
_0-f_
 62
    7
 10
1276
 20
114
 40
14
 41
1
 50
0
  1
別記
  0
TEXT
  8
_0-f_
 62
    7
 10
1564
 20
150
 40
14
 41
1
 50
0
  1
別記
  0
TEXT
  8
_0-f_
 62
    7
 10
1576
 20
60
 40
12
 41
0.6666666666666666
 50
0
  1
ユニット
  0
TEXT
  8
_0-f_
 62
    7
 10
1060
 20
78
 40
20
 41
1
 50
0
  1
玉置
  0
TEXT
  8
_0-f_
 62
    7
 10
956
 20
46
 40
24
 41
0.8333333333333333
 50
0
  1
株式会社アウス
  0
POINT
  8
_0-f_
 62
    9
 10
920
 20
78
  0
POINT
  8
_0-f_
 62
    9
 10
1000
 20
78
  0
POINT
  8
_0-f_
 62
    9
 10
1080
 20
78
  0
POINT
  8
_0-f_
 62
    9
 10
884
 20
132
  0
POINT
  8
_0-f_
 62
    9
 10
964
 20
132
  0
POINT
  8
_0-f_
 62
    9
 10
1044
 20
132
  0
POINT
  8
_0-f_
 62
    9
 10
1124
 20
132
  0
POINT
  8
_0-f_
 62
    9
 10
1264
 20
132
  0
POINT
  8
_0-f_
 62
    9
 10
1276
 20
114
  0
POINT
  8
_0-f_
 62
    9
 10
1124
 20
58
  0
POINT
  8
_0-f_
 62
    9
 10
956
 20
46
  0
POINT
  8
_0-f_
 62
    9
 10
1276
 20
42
  0
POINT
  8
_0-f_
 62
    9
 10
1276
 20
78
  0
POINT
  8
_0-f_
 62
    9
 10
1552
 20
114
  0
POINT
  8
_0-f_
 62
    9
 10
1544
 20
132
  0
POINT
  8
_0-f_
 62
    9
 10
1544
 20
168
  0
POINT
  8
_0-f_
 62
    9
 10
1564
 20
150
  0
POINT
  8
_0-f_
 62
    9
 10
1592
 20
42
  0
POINT
  8
_0-f_
 62
    9
 10
1576
 20
60
  0
POINT
  8
_0-f_
 62
    9
 10
1124
 20
96
  0
POINT
  8
_0-f_
 62
    9
 10
1190
 20
114
  0
POINT
  8
_0-f_
 62
    9
 10
1190
 20
78
  0
TEXT
  8
_0-f_
 62
    7
 10
1264
 20
98
 40
12
 41
0.6666666666666666
 50
0
  1
図面名　TITLE
  0
POINT
  8
_0-f_
 62
    9
 10
1264
 20
98
  0
TEXT
  8
_0-f_
 62
    7
 10
908
 20
150
 40
14
 41
1
 50
0
  1
　
  0
TEXT
  8
_0-f_
 62
    7
 10
1276
 20
78
 40
18
 41
0.8888888888888888
 50
0
  1
　
  0
TEXT
  8
_0-f_
 62
    7
 10
1176
 20
114
 40
14
 41
1
 50
0
  1
Ａ３
  0
TEXT
  8
_0-f_
 62
    7
 10
1552
 20
114
 40
14
 41
1
 50
0
  1
FREE
  0
LINE
  8
_0-2_
  6
CONTINUOUS
 62
    7
 10
179
 20
1009
 11
194
 21
994
  0
LINE
  8
_0-3_
  6
CONTINUOUS
 62
    7
 10
185.5
 20
1014
 11
185.5
 21
1024
  0
LINE
  8
_0-4_
  6
CONTINUOUS
 62
    7
 10
179
 20
1004
 11
172.50000000000011
 21
1004
  0
LINE
  8
_0-4_
  6
CONTINUOUS
 62
    7
 10
182.50000000000011
 20
1009
 11
182.50000000000011
 21
1014
  0
LINE
  8
_0-0_
  6
CONTINUOUS
 62
    2
 10
195.00000000000011
 20
1052
 11
206.59110991546891
 21
1055.1058285412303
  0
LINE
  8
_0-0_
  6
CONTINUOUS
 62
    2
 10
195.00000000000011
 20
1052
 11
206.59110991546891
 21
1048.8941714587697
  0
LINE
  8
_0-0_
  6
CONTINUOUS
 62
    2
 10
195.00000000000011
 20
1056
 11
195.00000000000011
 21
996.99999999999989
  0
LINE
  8
_0-0_
  6
CONTINUOUS
 62
    2
 10
179
 20
1080
 11
190.59110991546879
 21
1083.1058285412303
  0
LINE
  8
_0-0_
  6
CONTINUOUS
 62
    2
 10
179
 20
1080
 11
190.59110991546879
 21
1076.8941714587697
  0
LINE
  8
_0-0_
  6
CONTINUOUS
 62
    2
 10
179
 20
1084
 11
179
 21
1013
  0
LINE
  8
_0-0_
  6
CONTINUOUS
 62
    2
 10
136
 20
992.99999999999989
 11
132.89417145876973
 21
981.40889008453109
  0
LINE
  8
_0-0_
  6
CONTINUOUS
 62
    2
 10
136
 20
992.99999999999989
 11
139.10582854123027
 21
981.40889008453109
  0
LINE
  8
_0-0_
  6
CONTINUOUS
 62
    2
 10
132
 20
992.99999999999989
 11
191.00000000000011
 21
992.99999999999989
  0
LINE
  8
_0-0_
  6
CONTINUOUS
 62
    2
 10
108
 20
1009
 11
104.89417145876973
 21
997.40889008453121
  0
LINE
  8
_0-0_
  6
CONTINUOUS
 62
    2
 10
108
 20
1009
 11
111.10582854123027
 21
997.40889008453121
  0
LINE
  8
_0-0_
  6
CONTINUOUS
 62
    2
 10
104
 20
1009
 11
175
 21
1009
  0
TEXT
  8
_0-f_
 62
    7
 10
1288
 20
336
 40
16
 41
1
 50
0
  1
番号
  0
TEXT
  8
_0-f_
 62
    7
 10
1296
 20
312
 40
16
 41
1
 50
0
  1
１
  0
TEXT
  8
_0-f_
 62
    7
 10
1296
 20
288
 40
16
 41
1
 50
0
  1
２
  0
POINT
  8
_0-f_
 62
    9
 10
1304
 20
336
  0
POINT
  8
_0-f_
 62
    9
 10
1304
 20
288
  0
LINE
  8
_0-f_
  6
CONTINUOUS
 62
    7
 10
1284
 20
356
 11
1620
 21
356
  0
LINE
  8
_0-f_
  6
CONTINUOUS
 62
    7
 10
1284
 20
332
 11
1620
 21
332
  0
LINE
  8
_0-f_
  6
CONTINUOUS
 62
    7
 10
1284
 20
308
 11
1620
 21
308
  0
LINE
  8
_0-f_
  6
CONTINUOUS
 62
    7
 10
1284
 20
284
 11
1620
 21
284
  0
POINT
  8
_0-f_
 62
    9
 10
1384
 20
336
  0
POINT
  8
_0-f_
 62
    9
 10
1384
 20
312
  0
POINT
  8
_0-f_
 62
    9
 10
1384
 20
288
  0
POINT
  8
_0-f_
 62
    9
 10
1560
 20
288
  0
POINT
  8
_0-f_
 62
    9
 10
1560
 20
312
  0
POINT
  8
_0-f_
 62
    9
 10
1560
 20
336
  0
POINT
  8
_0-f_
 62
    9
 10
1472
 20
336
  0
POINT
  8
_0-f_
 62
    9
 10
1472
 20
312
  0
POINT
  8
_0-f_
 62
    9
 10
1472
 20
288
  0
POINT
  8
_0-f_
 62
    9
 10
1304
 20
264
  0
LINE
  8
_0-f_
  6
CONTINUOUS
 62
    7
 10
1284
 20
260
 11
1620
 21
260
  0
POINT
  8
_0-f_
 62
    9
 10
1384
 20
264
  0
POINT
  8
_0-f_
 62
    9
 10
1560
 20
264
  0
POINT
  8
_0-f_
 62
    9
 10
1472
 20
264
  0
TEXT
  8
_0-f_
 62
    7
 10
1296
 20
264
 40
16
 41
1
 50
0
  1
３
  0
TEXT
  8
_0-f_
 62
    7
 10
1544
 20
336
 40
16
 41
1
 50
0
  1
備考
  0
TEXT
  8
_0-f_
 62
    7
 10
1456
 20
336
 40
16
 41
1
 50
0
  1
材質
  0
TEXT
  8
_0-f_
 62
    7
 10
1344
 20
336
 40
16
 41
1
 50
0
  1
部　材　名
  0
POINT
  8
_0-f_
 62
    9
 10
1304
 20
240
  0
LINE
  8
_0-f_
  6
CONTINUOUS
 62
    7
 10
1284
 20
236
 11
1620
 21
236
  0
POINT
  8
_0-f_
 62
    9
 10
1384
 20
240
  0
POINT
  8
_0-f_
 62
    9
 10
1560
 20
240
  0
POINT
  8
_0-f_
 62
    9
 10
1472
 20
240
  0
POINT
  8
_0-f_
 62
    9
 10
1304
 20
216
  0
LINE
  8
_0-f_
  6
CONTINUOUS
 62
    7
 10
1284
 20
212
 11
1620
 21
212
  0
POINT
  8
_0-f_
 62
    9
 10
1384
 20
216
  0
POINT
  8
_0-f_
 62
    9
 10
1560
 20
216
  0
POINT
  8
_0-f_
 62
    9
 10
1472
 20
216
  0
LINE
  8
_0-f_
  6
CONTINUOUS
 62
    7
 10
1284
 20
212
 11
1284
 21
356
  0
LINE
  8
_0-f_
  6
CONTINUOUS
 62
    7
 10
1324
 20
212
 11
1324
 21
356
  0
LINE
  8
_0-f_
  6
CONTINUOUS
 62
    7
 10
1444
 20
212
 11
1444
 21
356
  0
LINE
  8
_0-f_
  6
CONTINUOUS
 62
    7
 10
1500
 20
212
 11
1500
 21
356
  0
LINE
  8
_0-f_
  6
CONTINUOUS
 62
    7
 10
1620
 20
212
 11
1620
 21
356
  0
TEXT
  8
_0-f_
 62
    7
 10
1296
 20
240
 40
16
 41
1
 50
0
  1
４
  0
TEXT
  8
_0-f_
 62
    7
 10
1296
 20
216
 40
16
 41
1
 50
0
  1
５
  0
TEXT
  8
_0-f_
 62
    7
 10
1376
 20
312
 40
16
 41
1
 50
0
  1
蓋
  0
TEXT
  8
_0-f_
 62
    7
 10
1368
 20
288
 40
16
 41
1
 50
0
  1
目地
  0
TEXT
  8
_0-f_
 62
    7
 10
1368
 20
264
 40
16
 41
1
 50
0
  1
本体
  0
TEXT
  8
_0-f_
 62
    7
 10
1368
 20
240
 40
16
 41
1
 50
0
  1
補強
  0
TEXT
  8
_0-f_
 62
    7
 10
1360
 20
216
 40
16
 41
1
 50
0
  1
回転軸
  0
TEXT
  8
_0-f_
 62
    7
 10
1448
 20
312
 40
16
 41
1
 50
0
  1
SUS304
  0
TEXT
  8
_0-f_
 62
    7
 10
1448
 20
288
 40
16
 41
1
 50
0
  1
SUS304
  0
TEXT
  8
_0-f_
 62
    7
 10
1448
 20
264
 40
16
 41
1
 50
0
  1
SUS304
  0
TEXT
  8
_0-f_
 62
    7
 10
1448
 20
240
 40
16
 41
1
 50
0
  1
SUS304
  0
TEXT
  8
_0-f_
 62
    7
 10
1448
 20
216
 40
16
 41
1
 50
0
  1
SUS304
  0
TEXT
  8
_0-f_
 62
    7
 10
1552
 20
312
 40
16
 41
1
 50
0
  1
t3
  0
TEXT
  8
_0-f_
 62
    7
 10
1532
 20
288
 40
16
 41
1
 50
0
  1
t3x15FB
  0
TEXT
  8
_0-f_
 62
    7
 10
1544
 20
264
 40
16
 41
1
 50
0
  1
t1.5
  0
TEXT
  8
_0-f_
 62
    7
 10
1544
 20
240
 40
16
 41
1
 50
0
  1
t1.5
  0
TEXT
  8
_0-f_
 62
    7
 10
1548
 20
216
 40
16
 41
1
 50
0
  1
φ8
  0
TEXT
  8
_0-f_
 62
    7
 10
1276
 20
78
 40
18
 41
1
 50
0
  1
ステンレス製量水器ボックス（土間埋設型）
  0
TEXT
  8
_0-f_
 62
    7
 10
1592
 20
42
 40
14
 41
1
 50
0
  1
SB
  0
TEXT
  8
_0-f_
 62
    7
 10
1141.5
 20
78
 40
14
 41
1
 50
0
  1
2019.02.04.
  0
LINE
  8
_0-2_
  6
CONTINUOUS
 62
    7
 10
179
 20
759
 11
194
 21
774
  0
LINE
  8
_0-3_
  6
CONTINUOUS
 62
    7
 10
196
 20
754
 11
206
 21
744
  0
LINE
  8
_0-4_
  6
CONTINUOUS
 62
    7
 10
179
 20
764
 11
174
 21
764
  0
LINE
  8
_0-4_
  6
CONTINUOUS
 62
    7
 10
184
 20
754
 11
184
 21
759
  0
LINE
  8
_0-2_
  6
CONTINUOUS
 62
    7
 10
179
 20
624
 11
179
 21
621
  0
LINE
  8
_0-3_
  6
CONTINUOUS
 62
    7
 10
164
 20
425.49999999999989
 11
164
 21
424
  0
LINE
  8
_0-3_
  6
CONTINUOUS
 62
    7
 10
184
 20
425.49999999999989
 11
164
 21
425.49999999999989
  0
LINE
  8
_0-3_
  6
CONTINUOUS
 62
    7
 10
184
 20
424
 11
164
 21
424
  0
ARC
  8
_0-3_
  6
CONTINUOUS
 62
    7
 10
184
 20
425.49999999999989
 40
1.5000000000000002
 50
270
 51
0
  0
ARC
  8
_0-3_
  6
CONTINUOUS
 62
    7
 10
185.5
 20
619.50000000000011
 40
1.5000000000000002
 50
90
 51
180
  0
LINE
  8
_0-3_
  6
CONTINUOUS
 62
    7
 10
183
 20
619.50000000000011
 11
182.50000000000011
 21
619.50000000000011
  0
LINE
  8
_0-3_
  6
CONTINUOUS
 62
    7
 10
182.50000000000011
 20
619.50000000000011
 11
182.50000000000011
 21
554
  0
LINE
  8
_0-3_
  6
CONTINUOUS
 62
    7
 10
182.50000000000011
 20
504
 11
182.50000000000011
 21
427.00000000000011
  0
LINE
  8
_0-3_
  6
CONTINUOUS
 62
    7
 10
182.50000000000011
 20
514
 11
182.50000000000011
 21
544
  0
LINE
  8
_0-3_
  6
CONTINUOUS
 62
    7
 10
185.5
 20
619.50000000000011
 11
185.5
 21
621
  0
LINE
  8
_0-3_
  6
CONTINUOUS
 62
    7
 10
184
 20
619.50000000000011
 11
185.5
 21
619.50000000000011
  0
LINE
  8
_0-3_
  6
CONTINUOUS
 62
    7
 10
185.5
 20
427.00000000000011
 11
182.50000000000011
 21
427.00000000000011
  0
LINE
  8
_0-3_
  6
CONTINUOUS
 62
    7
 10
185.5
 20
424
 11
185.5
 21
427.00000000000011
  0
LINE
  8
_0-3_
  6
CONTINUOUS
 62
    7
 10
184
 20
620.00000000000011
 11
184
 21
425.49999999999989
  0
LINE
  8
_0-4_
  6
CONTINUOUS
 62
    7
 10
184
 20
554
 11
184
 21
504
  0
LINE
  8
_0-4_
  6
CONTINUOUS
 62
    7
 10
181
 20
504
 11
184
 21
504
  0
LINE
  8
_0-4_
  6
CONTINUOUS
 62
    7
 10
181
 20
554
 11
184
 21
554
  0
ARC
  8
_0-4_
  6
CONTINUOUS
 62
    7
 10
175.5
 20
544
 40
1.5000000000000002
 50
90
 51
180
  0
ARC
  8
_0-4_
  6
CONTINUOUS
 62
    7
 10
182.50000000000011
 20
545.49999999999989
 40
1.5000000000000002
 50
270
 51
0
  0
ARC
  8
_0-4_
  6
CONTINUOUS
 62
    7
 10
174
 20
544
 40
1.5000000000000002
 50
90
 51
180
  0
LINE
  8
_0-4_
  6
CONTINUOUS
 62
    7
 10
174
 20
545.49999999999989
 11
182.50000000000011
 21
545.49999999999989
  0
ARC
  8
_0-4_
  6
CONTINUOUS
 62
    7
 10
182.50000000000011
 20
512.50000000000011
 40
1.5000000000000002
 50
0
 51
90
  0
ARC
  8
_0-4_
  6
CONTINUOUS
 62
    7
 10
175.5
 20
514
 40
1.5000000000000002
 50
180
 51
270
  0
LINE
  8
_0-4_
  6
CONTINUOUS
 62
    7
 10
174
 20
512.50000000000011
 11
182.50000000000011
 21
512.50000000000011
  0
ARC
  8
_0-4_
  6
CONTINUOUS
 62
    7
 10
174
 20
514
 40
1.5000000000000002
 50
180
 51
270
  0
LINE
  8
_0-4_
  6
CONTINUOUS
 62
    7
 10
182.50000000000011
 20
545.49999999999989
 11
182.50000000000011
 21
554
  0
LINE
  8
_0-4_
  6
CONTINUOUS
 62
    7
 10
182.50000000000011
 20
544
 11
175.5
 21
544
  0
LINE
  8
_0-4_
  6
CONTINUOUS
 62
    7
 10
175.5
 20
514
 11
175.5
 21
544
  0
LINE
  8
_0-4_
  6
CONTINUOUS
 62
    7
 10
182.50000000000011
 20
514
 11
175.5
 21
514
  0
LINE
  8
_0-4_
  6
CONTINUOUS
 62
    7
 10
182.50000000000011
 20
504
 11
182.50000000000011
 21
512.50000000000011
  0
LINE
  8
_0-4_
  6
CONTINUOUS
 62
    7
 10
181
 20
504
 11
181
 21
512.50000000000011
  0
LINE
  8
_0-4_
  6
CONTINUOUS
 62
    7
 10
174
 20
544
 11
174
 21
514
  0
LINE
  8
_0-4_
  6
CONTINUOUS
 62
    7
 10
172.50000000000011
 20
544
 11
172.50000000000011
 21
514
  0
LINE
  8
_0-4_
  6
CONTINUOUS
 62
    7
 10
181
 20
545.49999999999989
 11
181
 21
554
  0
LINE
  8
_0-5_
  6
CONTINUOUS
 62
    7
 10
183
 20
620.00000000000011
 11
183
 21
612.00000000000011
  0
LINE
  8
_0-5_
  6
CONTINUOUS
 62
    7
 10
184
 20
612.00000000000011
 11
183
 21
612.00000000000011
  0
LINE
  8
_0-5_
  6
CONTINUOUS
 62
    7
 10
184
 20
620.00000000000011
 11
183
 21
620.00000000000011
  0
LINE
  8
_0-0_
  6
CONTINUOUS
 62
    2
 10
136
 20
775
 11
132.89417145876973
 21
786.59110991546879
  0
LINE
  8
_0-0_
  6
CONTINUOUS
 62
    2
 10
136
 20
775
 11
139.10582854123027
 21
786.59110991546879
  0
LINE
  8
_0-0_
  6
CONTINUOUS
 62
    2
 10
132
 20
775
 11
191.00000000000011
 21
775
  0
LINE
  8
_0-0_
  6
CONTINUOUS
 62
    2
 10
108
 20
759
 11
104.89417145876973
 21
770.59110991546879
  0
LINE
  8
_0-0_
  6
CONTINUOUS
 62
    2
 10
108
 20
759
 11
111.10582854123027
 21
770.59110991546879
  0
LINE
  8
_0-0_
  6
CONTINUOUS
 62
    2
 10
104
 20
759
 11
175
 21
759
  0
LINE
  8
_0-0_
  6
CONTINUOUS
 62
    2
 10
108
 20
424
 11
104.89417145876973
 21
435.59110991546879
  0
LINE
  8
_0-0_
  6
CONTINUOUS
 62
    2
 10
108
 20
424
 11
111.10582854123027
 21
435.59110991546879
  0
LINE
  8
_0-0_
  6
CONTINUOUS
 62
    2
 10
108
 20
624
 11
104.89417145876973
 21
612.40889008453121
  0
LINE
  8
_0-0_
  6
CONTINUOUS
 62
    2
 10
108
 20
624
 11
111.10582854123027
 21
612.40889008453121
  0
LINE
  8
_0-0_
  6
CONTINUOUS
 62
    2
 10
104
 20
424
 11
160
 21
424
  0
LINE
  8
_0-0_
  6
CONTINUOUS
 62
    2
 10
104
 20
624
 11
175
 21
624
  0
LINE
  8
_0-0_
  6
CONTINUOUS
 62
    2
 10
108
 20
424
 11
108
 21
624
  0
TEXT
  8
_0-0_
 62
    7
 10
106
 20
508
 40
20
 41
1
 50
90
  1
200
  0
LINE
  8
_0-0_
  6
CONTINUOUS
 62
    2
 10
164
 20
344
 11
175.59110991546879
 21
347.10582854123027
  0
LINE
  8
_0-0_
  6
CONTINUOUS
 62
    2
 10
164
 20
344
 11
175.59110991546879
 21
340.89417145876973
  0
LINE
  8
_0-0_
  6
CONTINUOUS
 62
    2
 10
164
 20
340
 11
164
 21
420
  0
LINE
  8
ADD_LINE
  6
DOT
 62
    9
 10
412.00000000000011
 20
902.99999999999989
 11
396
 21
902.99999999999989
  0
LINE
  8
ADD_LINE
  6
DOT
 62
    9
 10
404.00000000000006
 20
895
 11
404.00000000000006
 21
910.99999999999989
  0
TEXT
  8
_0-1_
 62
    7
 10
314.00000000000011
 20
885.99999999999989
 40
36
 41
1
 50
0
  1
量　水　器
  0
CIRCLE
  8
_0-1_
  6
CONTINUOUS
 62
    7
 10
404.00000000000006
 20
805
 40
10
  0
TEXT
  8
_0-0_
 62
    7
 10
462.31237718815214
 20
704
 40
16
 41
1
 50
0
  1
φ20穴(指穴)
  0
LINE
  8
_0-0_
  6
CONTINUOUS
 62
    7
 10
409.00000000000006
 20
796.33974596215546
 11
417.48528137423864
 21
787.85446458791694
  0
LINE
  8
_0-0_
  6
CONTINUOUS
 62
    7
 10
409.00000000000006
 20
796.33974596215546
 11
412.10582854123032
 21
784.74863604668667
  0
LINE
  8
_0-0_
  6
CONTINUOUS
 62
    7
 10
409.00000000000011
 20
796.33974596215546
 11
462.31237718815214
 21
704
  0
LINE
  8
_0-0_
  6
CONTINUOUS
 62
    7
 10
462.31237718815214
 20
704
 11
556.59095582209079
 21
704
  0
LINE
  8
_0-2_
  6
CONTINUOUS
 62
    7
 10
614.00000000000011
 20
994
 11
629.00000000000011
 21
1009
  0
LINE
  8
_0-3_
  6
CONTINUOUS
 62
    7
 10
622.50000000000011
 20
1014
 11
622.50000000000011
 21
1024
  0
LINE
  8
_0-4_
  6
CONTINUOUS
 62
    7
 10
635.5
 20
1004
 11
629.00000000000011
 21
1004
  0
LINE
  8
_0-4_
  6
CONTINUOUS
 62
    7
 10
625.5
 20
1009
 11
625.5
 21
1014
  0
LINE
  8
_0-0_
  6
CONTINUOUS
 62
    2
 10
613
 20
1052
 11
601.40889008453121
 21
1055.1058285412303
  0
LINE
  8
_0-0_
  6
CONTINUOUS
 62
    2
 10
613
 20
1052
 11
601.40889008453121
 21
1048.8941714587697
  0
LINE
  8
_0-0_
  6
CONTINUOUS
 62
    2
 10
613
 20
1056
 11
613
 21
996.99999999999989
  0
LINE
  8
_0-0_
  6
CONTINUOUS
 62
    2
 10
629.00000000000011
 20
1080
 11
617.40889008453132
 21
1083.1058285412303
  0
LINE
  8
_0-0_
  6
CONTINUOUS
 62
    2
 10
629.00000000000011
 20
1080
 11
617.40889008453132
 21
1076.8941714587697
  0
LINE
  8
_0-0_
  6
CONTINUOUS
 62
    2
 10
629.00000000000011
 20
1084
 11
629.00000000000011
 21
1013
  0
LINE
  8
_0-2_
  6
CONTINUOUS
 62
    7
 10
614.00000000000011
 20
774
 11
629.00000000000011
 21
759
  0
LINE
  8
_0-3_
  6
CONTINUOUS
 62
    7
 10
602.00000000000011
 20
744
 11
612.00000000000011
 21
754
  0
LINE
  8
_0-4_
  6
CONTINUOUS
 62
    7
 10
634.00000000000011
 20
764
 11
629.00000000000011
 21
764
  0
LINE
  8
_0-4_
  6
CONTINUOUS
 62
    7
 10
624.00000000000011
 20
754
 11
624.00000000000011
 21
759
  0
LINE
  8
_0-2_
  6
CONTINUOUS
 62
    7
 10
629.00000000000011
 20
624
 11
629.00000000000011
 21
621
  0
LINE
  8
_0-3_
  6
CONTINUOUS
 62
    7
 10
644.00000000000011
 20
425.49999999999989
 11
624.00000000000011
 21
425.49999999999989
  0
LINE
  8
_0-3_
  6
CONTINUOUS
 62
    7
 10
644.00000000000011
 20
425.49999999999989
 11
644.00000000000011
 21
424
  0
LINE
  8
_0-3_
  6
CONTINUOUS
 62
    7
 10
624.00000000000011
 20
424
 11
644.00000000000011
 21
424
  0
ARC
  8
_0-3_
  6
CONTINUOUS
 62
    7
 10
624.00000000000011
 20
425.49999999999989
 40
1.5000000000000002
 50
180
 51
270
  0
LINE
  8
_0-3_
  6
CONTINUOUS
 62
    7
 10
622.50000000000011
 20
427.00000000000011
 11
625.5
 21
427.00000000000011
  0
LINE
  8
_0-3_
  6
CONTINUOUS
 62
    7
 10
622.50000000000011
 20
424
 11
622.50000000000011
 21
427.00000000000011
  0
LINE
  8
_0-3_
  6
CONTINUOUS
 62
    7
 10
622.50000000000011
 20
619.50000000000011
 11
622.50000000000011
 21
621
  0
LINE
  8
_0-3_
  6
CONTINUOUS
 62
    7
 10
624.00000000000011
 20
619.50000000000011
 11
622.50000000000011
 21
619.50000000000011
  0
LINE
  8
_0-3_
  6
CONTINUOUS
 62
    7
 10
625.5
 20
619.50000000000011
 11
625.00000000000011
 21
619.50000000000011
  0
LINE
  8
_0-3_
  6
CONTINUOUS
 62
    7
 10
625.5
 20
619.50000000000011
 11
625.5
 21
554
  0
LINE
  8
_0-3_
  6
CONTINUOUS
 62
    7
 10
625.5
 20
504
 11
625.5
 21
427.00000000000011
  0
LINE
  8
_0-3_
  6
CONTINUOUS
 62
    7
 10
625.5
 20
544
 11
625.5
 21
514
  0
ARC
  8
_0-3_
  6
CONTINUOUS
 62
    7
 10
622.50000000000011
 20
619.50000000000011
 40
1.5000000000000002
 50
0
 51
90
  0
LINE
  8
_0-3_
  6
CONTINUOUS
 62
    7
 10
624.00000000000011
 20
620.00000000000011
 11
624.00000000000011
 21
425.49999999999989
  0
LINE
  8
_0-4_
  6
CONTINUOUS
 62
    7
 10
624.00000000000011
 20
504
 11
624.00000000000011
 21
554
  0
LINE
  8
_0-4_
  6
CONTINUOUS
 62
    7
 10
627.00000000000011
 20
554
 11
624.00000000000011
 21
554
  0
LINE
  8
_0-4_
  6
CONTINUOUS
 62
    7
 10
627.00000000000011
 20
504
 11
624.00000000000011
 21
504
  0
ARC
  8
_0-4_
  6
CONTINUOUS
 62
    7
 10
625.5
 20
545.49999999999989
 40
1.5000000000000002
 50
180
 51
270
  0
ARC
  8
_0-4_
  6
CONTINUOUS
 62
    7
 10
632.50000000000023
 20
544
 40
1.5000000000000002
 50
0
 51
90.000000000000014
  0
ARC
  8
_0-4_
  6
CONTINUOUS
 62
    7
 10
634.00000000000011
 20
544
 40
1.5000000000000002
 50
0
 51
90.000000000000014
  0
ARC
  8
_0-4_
  6
CONTINUOUS
 62
    7
 10
632.50000000000023
 20
514
 40
1.5000000000000002
 50
270
 51
0
  0
ARC
  8
_0-4_
  6
CONTINUOUS
 62
    7
 10
625.5
 20
512.50000000000011
 40
1.5000000000000002
 50
90
 51
180
  0
ARC
  8
_0-4_
  6
CONTINUOUS
 62
    7
 10
634.00000000000011
 20
514
 40
1.5000000000000002
 50
270
 51
0
  0
LINE
  8
_0-4_
  6
CONTINUOUS
 62
    7
 10
625.5
 20
554
 11
625.5
 21
545.49999999999989
  0
LINE
  8
_0-4_
  6
CONTINUOUS
 62
    7
 10
625.5
 20
544
 11
632.50000000000023
 21
544
  0
LINE
  8
_0-4_
  6
CONTINUOUS
 62
    7
 10
632.50000000000023
 20
544
 11
632.50000000000023
 21
514
  0
LINE
  8
_0-4_
  6
CONTINUOUS
 62
    7
 10
625.5
 20
514
 11
632.50000000000023
 21
514
  0
LINE
  8
_0-4_
  6
CONTINUOUS
 62
    7
 10
625.5
 20
512.50000000000011
 11
625.5
 21
504
  0
LINE
  8
_0-4_
  6
CONTINUOUS
 62
    7
 10
627.00000000000011
 20
554
 11
627.00000000000011
 21
545.49999999999989
  0
LINE
  8
_0-4_
  6
CONTINUOUS
 62
    7
 10
627.00000000000011
 20
512.50000000000011
 11
627.00000000000011
 21
504
  0
LINE
  8
_0-4_
  6
CONTINUOUS
 62
    7
 10
634.00000000000011
 20
514
 11
634.00000000000011
 21
544
  0
LINE
  8
_0-4_
  6
CONTINUOUS
 62
    7
 10
635.5
 20
514
 11
635.5
 21
544
  0
LINE
  8
_0-4_
  6
CONTINUOUS
 62
    7
 10
634.00000000000011
 20
512.50000000000011
 11
625.5
 21
512.50000000000011
  0
LINE
  8
_0-4_
  6
CONTINUOUS
 62
    7
 10
634.00000000000011
 20
545.49999999999989
 11
625.5
 21
545.49999999999989
  0
LINE
  8
_0-5_
  6
CONTINUOUS
 62
    7
 10
625.00000000000011
 20
620.00000000000011
 11
625.00000000000011
 21
612.00000000000011
  0
LINE
  8
_0-5_
  6
CONTINUOUS
 62
    7
 10
625.00000000000011
 20
612.00000000000011
 11
624.00000000000011
 21
612.00000000000011
  0
LINE
  8
_0-5_
  6
CONTINUOUS
 62
    7
 10
625.00000000000011
 20
620.00000000000011
 11
624.00000000000011
 21
620.00000000000011
  0
LINE
  8
_0-2_
  6
CONTINUOUS
 62
    7
 10
779
 20
624
 11
779
 21
621
  0
LINE
  8
_0-3_
  6
CONTINUOUS
 62
    7
 10
764
 20
425.49999999999989
 11
764
 21
424
  0
LINE
  8
_0-3_
  6
CONTINUOUS
 62
    7
 10
764
 20
425.49999999999989
 11
784
 21
425.49999999999989
  0
LINE
  8
_0-3_
  6
CONTINUOUS
 62
    7
 10
784
 20
424
 11
764
 21
424
  0
ARC
  8
_0-3_
  6
CONTINUOUS
 62
    7
 10
784
 20
425.49999999999989
 40
1.5000000000000002
 50
270
 51
0
  0
LINE
  8
_0-3_
  6
CONTINUOUS
 62
    7
 10
784
 20
427.00000000000011
 11
785.49999999999989
 21
427.00000000000011
  0
LINE
  8
_0-3_
  6
CONTINUOUS
 62
    7
 10
785.49999999999989
 20
424
 11
785.49999999999989
 21
427.00000000000011
  0
ARC
  8
_0-3_
  6
CONTINUOUS
 62
    7
 10
785.49999999999989
 20
619.50000000000011
 40
1.5000000000000002
 50
90
 51
180
  0
LINE
  8
_0-3_
  6
CONTINUOUS
 62
    7
 10
785.49999999999989
 20
621
 11
785.49999999999989
 21
619.50000000000011
  0
LINE
  8
_0-3_
  6
CONTINUOUS
 62
    7
 10
784
 20
619.50000000000011
 11
785.49999999999989
 21
619.50000000000011
  0
LINE
  8
_0-3_
  6
CONTINUOUS
 62
    7
 10
784
 20
619.50000000000011
 11
784
 21
425.49999999999989
  0
LINE
  8
_0-4_
  6
CONTINUOUS
 62
    7
 10
782.50000000000011
 20
504
 11
784
 21
504
  0
LINE
  8
_0-4_
  6
CONTINUOUS
 62
    7
 10
782.50000000000011
 20
554
 11
784
 21
554
  0
ARC
  8
_0-4_
  6
CONTINUOUS
 62
    7
 10
775.49999999999989
 20
544
 40
1.5000000000000002
 50
90
 51
180
  0
ARC
  8
_0-4_
  6
CONTINUOUS
 62
    7
 10
782.50000000000011
 20
545.49999999999989
 40
1.5000000000000002
 50
270
 51
0
  0
ARC
  8
_0-4_
  6
CONTINUOUS
 62
    7
 10
775.49999999999989
 20
514
 40
1.5000000000000002
 50
180
 51
270
  0
ARC
  8
_0-4_
  6
CONTINUOUS
 62
    7
 10
782.50000000000011
 20
512.50000000000011
 40
1.5000000000000002
 50
0
 51
90
  0
LINE
  8
_0-4_
  6
CONTINUOUS
 62
    7
 10
782.50000000000011
 20
545.49999999999989
 11
782.50000000000011
 21
554
  0
LINE
  8
_0-4_
  6
CONTINUOUS
 62
    7
 10
775.49999999999989
 20
545.49999999999989
 11
782.50000000000011
 21
545.49999999999989
  0
LINE
  8
_0-4_
  6
CONTINUOUS
 62
    7
 10
782.50000000000011
 20
544
 11
775.49999999999989
 21
544
  0
LINE
  8
_0-4_
  6
CONTINUOUS
 62
    7
 10
775.49999999999989
 20
514
 11
775.49999999999989
 21
544
  0
LINE
  8
_0-4_
  6
CONTINUOUS
 62
    7
 10
782.50000000000011
 20
514
 11
775.49999999999989
 21
514
  0
LINE
  8
_0-4_
  6
CONTINUOUS
 62
    7
 10
775.49999999999989
 20
512.50000000000011
 11
782.50000000000011
 21
512.50000000000011
  0
LINE
  8
_0-4_
  6
CONTINUOUS
 62
    7
 10
782.50000000000011
 20
504
 11
782.50000000000011
 21
512.50000000000011
  0
LINE
  8
_0-4_
  6
CONTINUOUS
 62
    7
 10
784
 20
554
 11
784
 21
504
  0
LINE
  8
_0-4_
  6
CONTINUOUS
 62
    7
 10
774
 20
544
 11
774
 21
514
  0
LINE
  8
_0-0_
  6
CONTINUOUS
 62
    7
 10
629.00000000000011
 20
622.5
 11
637.48528137423864
 21
630.98528137423853
  0
LINE
  8
_0-0_
  6
CONTINUOUS
 62
    7
 10
629.00000000000011
 20
622.5
 11
640.59110991546891
 21
625.60582854123027
  0
LINE
  8
_0-0_
  6
CONTINUOUS
 62
    7
 10
625.5
 20
575.75
 11
633.98528137423864
 21
584.23528137423853
  0
LINE
  8
_0-0_
  6
CONTINUOUS
 62
    7
 10
625.5
 20
575.75
 11
637.09110991546879
 21
578.85582854123027
  0
LINE
  8
_0-0_
  6
CONTINUOUS
 62
    7
 10
635.5
 20
529
 11
643.98528137423864
 21
537.48528137423853
  0
LINE
  8
_0-0_
  6
CONTINUOUS
 62
    7
 10
635.5
 20
529
 11
647.09110991546879
 21
532.10582854123027
  0
CIRCLE
  8
_0-0_
  6
CONTINUOUS
 62
    7
 10
684
 20
557.00148805569688
 40
12
  0
TEXT
  8
_0-0_
 62
    7
 10
674
 20
547.001488055697
 40
20
 41
1
 50
0
  1
４
  0
CIRCLE
  8
_0-0_
  6
CONTINUOUS
 62
    7
 10
684
 20
609.52499074759305
 40
12
  0
TEXT
  8
_0-0_
 62
    7
 10
674
 20
599.52499074759305
 40
20
 41
1
 50
0
  1
３
  0
CIRCLE
  8
_0-0_
  6
CONTINUOUS
 62
    7
 10
684
 20
654.25426480542933
 40
12
  0
TEXT
  8
_0-0_
 62
    7
 10
674
 20
644.25426480542933
 40
20
 41
1
 50
0
  1
２
  0
LINE
  8
_0-0_
  6
CONTINUOUS
 62
    7
 10
635.5
 20
529
 11
673.60769515458674
 21
551.00148805569688
  0
LINE
  8
_0-0_
  6
CONTINUOUS
 62
    7
 10
625.5
 20
575.75
 11
673.60769515458674
 21
603.52499074759305
  0
LINE
  8
_0-0_
  6
CONTINUOUS
 62
    7
 10
629.00000000000011
 20
622.5
 11
673.60769515458674
 21
648.25426480542933
  0
LINE
  8
_0-0_
  6
CONTINUOUS
 62
    2
 10
644.00000000000011
 20
344
 11
632.40889008453132
 21
347.10582854123027
  0
LINE
  8
_0-0_
  6
CONTINUOUS
 62
    2
 10
644.00000000000011
 20
344
 11
632.40889008453132
 21
340.89417145876973
  0
LINE
  8
_0-0_
  6
CONTINUOUS
 62
    2
 10
644.00000000000011
 20
340
 11
644.00000000000011
 21
420
  0
LINE
  8
_0-0_
  6
CONTINUOUS
 62
    2
 10
764
 20
344
 11
775.59110991546879
 21
347.10582854123027
  0
LINE
  8
_0-0_
  6
CONTINUOUS
 62
    2
 10
764
 20
344
 11
775.59110991546879
 21
340.89417145876973
  0
LINE
  8
_0-0_
  6
CONTINUOUS
 62
    2
 10
764
 20
340
 11
764
 21
420
  0
ARC
  8
_0-3_
  6
CONTINUOUS
 62
    7
 10
904
 20
469
 40
30
 50
0
 51
180
  0
LINE
  8
_0-3_
  6
CONTINUOUS
 62
    7
 10
874
 20
469
 11
874
 21
424
  0
LINE
  8
_0-3_
  6
CONTINUOUS
 62
    7
 10
934
 20
469
 11
934
 21
424
  0
LINE
  8
_0-0_
  6
CONTINUOUS
 62
    2
 10
874
 20
372
 11
885.59110991546879
 21
375.10582854123027
  0
LINE
  8
_0-0_
  6
CONTINUOUS
 62
    2
 10
874
 20
372
 11
885.59110991546879
 21
368.89417145876973
  0
LINE
  8
_0-0_
  6
CONTINUOUS
 62
    2
 10
934
 20
372
 11
922.40889008453121
 21
375.10582854123027
  0
LINE
  8
_0-0_
  6
CONTINUOUS
 62
    2
 10
934
 20
372
 11
922.40889008453121
 21
368.89417145876973
  0
LINE
  8
_0-0_
  6
CONTINUOUS
 62
    2
 10
874
 20
368
 11
874
 21
420
  0
LINE
  8
_0-0_
  6
CONTINUOUS
 62
    2
 10
934
 20
368
 11
934
 21
420
  0
LINE
  8
_0-0_
  6
CONTINUOUS
 62
    2
 10
874
 20
372
 11
934
 21
372
  0
TEXT
  8
_0-0_
 62
    7
 10
893.5
 20
374
 40
20
 41
1
 50
0
  1
60
  0
LINE
  8
_0-0_
  6
CONTINUOUS
 62
    2
 10
846
 20
424
 11
842.89417145876973
 21
435.59110991546879
  0
LINE
  8
_0-0_
  6
CONTINUOUS
 62
    2
 10
846
 20
424
 11
849.10582854123027
 21
435.59110991546879
  0
LINE
  8
_0-0_
  6
CONTINUOUS
 62
    2
 10
846
 20
499
 11
842.89417145876973
 21
487.40889008453121
  0
LINE
  8
_0-0_
  6
CONTINUOUS
 62
    2
 10
846
 20
499
 11
849.10582854123027
 21
487.40889008453121
  0
LINE
  8
_0-0_
  6
CONTINUOUS
 62
    2
 10
842
 20
499
 11
900
 21
499
  0
LINE
  8
_0-0_
  6
CONTINUOUS
 62
    2
 10
846
 20
424
 11
846
 21
499
  0
TEXT
  8
_0-0_
 62
    7
 10
844
 20
451
 40
20
 41
1
 50
90
  1
75
  0
LINE
  8
_0-2_
  6
CONTINUOUS
 62
    7
 10
1029
 20
624
 11
1029
 21
621
  0
LINE
  8
_0-3_
  6
CONTINUOUS
 62
    7
 10
1024
 20
425.49999999999989
 11
1044
 21
425.49999999999989
  0
LINE
  8
_0-3_
  6
CONTINUOUS
 62
    7
 10
1044
 20
425.49999999999989
 11
1044
 21
424
  0
LINE
  8
_0-3_
  6
CONTINUOUS
 62
    7
 10
1024
 20
424
 11
1044
 21
424
  0
ARC
  8
_0-3_
  6
CONTINUOUS
 62
    7
 10
1024
 20
425.49999999999989
 40
1.5000000000000002
 50
180
 51
270
  0
LINE
  8
_0-3_
  6
CONTINUOUS
 62
    7
 10
1014
 20
427.00000000000011
 11
1024
 21
427.00000000000011
  0
LINE
  8
_0-3_
  6
CONTINUOUS
 62
    7
 10
1022.5
 20
424
 11
1022.5
 21
427.00000000000011
  0
LINE
  8
_0-3_
  6
CONTINUOUS
 62
    7
 10
1024
 20
621
 11
1024
 21
425.49999999999989
  0
LINE
  8
_0-3_
  6
CONTINUOUS
 62
    7
 10
1014
 20
504
 11
1014
 21
427.00000000000011
  0
LINE
  8
_0-3_
  6
CONTINUOUS
 62
    7
 10
1014
 20
621
 11
1014
 21
554
  0
LINE
  8
_0-4_
  6
CONTINUOUS
 62
    7
 10
1025.5
 20
554
 11
1024
 21
554
  0
LINE
  8
_0-4_
  6
CONTINUOUS
 62
    7
 10
1025.5
 20
504
 11
1024
 21
504
  0
ARC
  8
_0-4_
  6
CONTINUOUS
 62
    7
 10
1025.5
 20
545.49999999999989
 40
1.5000000000000002
 50
180
 51
270
  0
ARC
  8
_0-4_
  6
CONTINUOUS
 62
    7
 10
1032.5
 20
544
 40
1.5000000000000002
 50
0
 51
90.000000000000014
  0
ARC
  8
_0-4_
  6
CONTINUOUS
 62
    7
 10
1032.5
 20
514
 40
1.5000000000000002
 50
270
 51
0
  0
ARC
  8
_0-4_
  6
CONTINUOUS
 62
    7
 10
1025.5
 20
512.50000000000011
 40
1.5000000000000002
 50
90
 51
180
  0
LINE
  8
_0-4_
  6
CONTINUOUS
 62
    7
 10
1025.5
 20
554
 11
1025.5
 21
545.49999999999989
  0
LINE
  8
_0-4_
  6
CONTINUOUS
 62
    7
 10
1032.5
 20
545.49999999999989
 11
1025.5
 21
545.49999999999989
  0
LINE
  8
_0-4_
  6
CONTINUOUS
 62
    7
 10
1025.5
 20
544
 11
1032.5
 21
544
  0
LINE
  8
_0-4_
  6
CONTINUOUS
 62
    7
 10
1032.5
 20
544
 11
1032.5
 21
514
  0
LINE
  8
_0-4_
  6
CONTINUOUS
 62
    7
 10
1025.5
 20
514
 11
1032.5
 21
514
  0
LINE
  8
_0-4_
  6
CONTINUOUS
 62
    7
 10
1032.5
 20
512.50000000000011
 11
1025.5
 21
512.50000000000011
  0
LINE
  8
_0-4_
  6
CONTINUOUS
 62
    7
 10
1025.5
 20
512.50000000000011
 11
1025.5
 21
504
  0
LINE
  8
_0-4_
  6
CONTINUOUS
 62
    7
 10
1024
 20
554
 11
1024
 21
504
  0
LINE
  8
_0-4_
  6
CONTINUOUS
 62
    7
 10
1034
 20
514
 11
1034
 21
544
  0
CIRCLE
  8
_0-5_
  6
CONTINUOUS
 62
    7
 10
992.00018064436267
 20
616
 40
4
  0
CIRCLE
  8
_0-0_
  6
CONTINUOUS
 62
    7
 10
1019.7129935654648
 20
664
 40
12
  0
TEXT
  8
_0-0_
 62
    7
 10
1009.7129935654647
 20
654
 40
20
 41
1
 50
0
  1
５
  0
LINE
  8
_0-0_
  6
CONTINUOUS
 62
    7
 10
994.00018064436267
 20
619.46410161513779
 11
997.10600918559294
 21
631.05521153060658
  0
LINE
  8
_0-0_
  6
CONTINUOUS
 62
    7
 10
994.00018064436267
 20
619.46410161513779
 11
1002.4854620186013
 21
627.94938298937632
  0
LINE
  8
_0-0_
  6
CONTINUOUS
 62
    7
 10
994.00018064436267
 20
619.46410161513779
 11
1013.7129935654648
 21
653.60769515458674
  0
LINE
  8
_0-0_
  6
CONTINUOUS
 62
    2
 10
1044
 20
344
 11
1032.4088900845313
 21
347.10582854123027
  0
LINE
  8
_0-0_
  6
CONTINUOUS
 62
    2
 10
1044
 20
344
 11
1032.4088900845313
 21
340.89417145876973
  0
LINE
  8
_0-0_
  6
CONTINUOUS
 62
    2
 10
1044
 20
340
 11
1044
 21
420
  0
LINE
  8
_0-3_
  6
CONTINUOUS
 62
    7
 10
622.50000000000011
 20
1024
 11
185.5
 21
1024
  0
LINE
  8
_0-4_
  6
CONTINUOUS
 62
    7
 10
625.5
 20
1014
 11
182.50000000000011
 21
1014
  0
LINE
  8
_0-2_
  6
CONTINUOUS
 62
    7
 10
629.00000000000011
 20
1009
 11
179
 21
1009
  0
LINE
  8
_0-2_
  6
CONTINUOUS
 62
    7
 10
614.00000000000011
 20
994
 11
194
 21
994
  0
LINE
  8
_0-1_
  6
CONTINUOUS
 62
    7
 10
613
 20
992.99999999999989
 11
195.00000000000011
 21
992.99999999999989
  0
LINE
  8
_0-1_
  6
CONTINUOUS
 62
    7
 10
613
 20
775
 11
613
 21
992.99999999999989
  0
LINE
  8
_0-1_
  6
CONTINUOUS
 62
    7
 10
613
 20
775
 11
195.00000000000011
 21
775
  0
LINE
  8
_0-2_
  6
CONTINUOUS
 62
    7
 10
614.00000000000011
 20
774
 11
614.00000000000011
 21
994
  0
LINE
  8
_0-2_
  6
CONTINUOUS
 62
    7
 10
614.00000000000011
 20
774
 11
194
 21
774
  0
LINE
  8
_0-2_
  6
CONTINUOUS
 62
    7
 10
629.00000000000011
 20
759
 11
629.00000000000011
 21
1009
  0
LINE
  8
_0-2_
  6
CONTINUOUS
 62
    7
 10
629.00000000000011
 20
759
 11
179
 21
759
  0
LINE
  8
_0-4_
  6
CONTINUOUS
 62
    7
 10
624.00000000000011
 20
754
 11
184
 21
754
  0
LINE
  8
_0-3_
  6
CONTINUOUS
 62
    7
 10
602.00000000000011
 20
744
 11
206
 21
744
  0
LINE
  8
_0-1_
  6
CONTINUOUS
 62
    7
 10
195.00000000000011
 20
775
 11
195.00000000000011
 21
992.99999999999989
  0
LINE
  8
_0-2_
  6
CONTINUOUS
 62
    7
 10
194
 20
774
 11
194
 21
994
  0
LINE
  8
_0-2_
  6
CONTINUOUS
 62
    7
 10
179
 20
759
 11
179
 21
1009
  0
LINE
  8
_0-4_
  6
CONTINUOUS
 62
    7
 10
174
 20
764
 11
172.50000000000011
 21
1004
  0
LINE
  8
_0-3_
  6
CONTINUOUS
 62
    7
 10
172.50937500000009
 20
1002.5
 11
164
 21
1002.5
  0
LINE
  8
_0-3_
  6
CONTINUOUS
 62
    7
 10
164
 20
785.99999999999989
 11
173.92452830188677
 21
776.07547169811323
  0
LINE
  8
_0-4_
  6
CONTINUOUS
 62
    7
 10
634.00000000000011
 20
764
 11
635.5
 21
1004
  0
LINE
  8
_0-3_
  6
CONTINUOUS
 62
    7
 10
644.00000000000011
 20
1002.5
 11
635.49062500000002
 21
1002.5
  0
LINE
  8
_0-3_
  6
CONTINUOUS
 62
    7
 10
634.07547169811335
 20
776.07547169811312
 11
644.00000000000011
 21
785.99999999999989
  0
LINE
  8
_0-0_
  6
CONTINUOUS
 62
    2
 10
179
 20
1080
 11
629.00000000000011
 21
1080
  0
TEXT
  8
_0-0_
 62
    7
 10
388.00000000000006
 20
1082
 40
20
 41
1
 50
0
  1
450
  0
LINE
  8
_0-0_
  6
CONTINUOUS
 62
    2
 10
195.00000000000011
 20
1052
 11
613
 21
1052
  0
TEXT
  8
_0-0_
 62
    7
 10
388.00000000000006
 20
1054
 40
20
 41
1
 50
0
  1
418
  0
LINE
  8
_0-0_
  6
CONTINUOUS
 62
    2
 10
136
 20
775
 11
136
 21
992.99999999999989
  0
TEXT
  8
_0-0_
 62
    7
 10
134
 20
867.99999999999989
 40
20
 41
1
 50
90
  1
218
  0
LINE
  8
_0-0_
  6
CONTINUOUS
 62
    2
 10
108
 20
759
 11
108
 21
1009
  0
TEXT
  8
_0-0_
 62
    7
 10
106
 20
868
 40
20
 41
1
 50
90
  1
250
  0
LINE
  8
_0-3_
  6
CONTINUOUS
 62
    7
 10
164
 20
785.99999999999989
 11
164
 21
854
  0
LINE
  8
_0-3_
  6
CONTINUOUS
 62
    7
 10
644.00000000000011
 20
785.99999999999989
 11
644.00000000000011
 21
854
  0
LINE
  8
_0-3_
  6
CONTINUOUS
 62
    7
 10
644.00000000000011
 20
914
 11
644.00000000000011
 21
1002.5
  0
LINE
  8
_0-3_
  6
CONTINUOUS
 62
    7
 10
164
 20
914
 11
164
 21
1002.5
  0
LINE
  8
_0-3_
  6
CONTINUOUS
 62
    7
 10
164
 20
914
 11
173.06250000000011
 21
914
  0
LINE
  8
_0-3_
  6
CONTINUOUS
 62
    7
 10
634.9375
 20
914
 11
644.00000000000011
 21
914
  0
LINE
  8
_0-3_
  6
CONTINUOUS
 62
    7
 10
164
 20
854
 11
173.4375
 21
854
  0
LINE
  8
_0-3_
  6
CONTINUOUS
 62
    7
 10
634.56250000000011
 20
854
 11
644.00000000000011
 21
854
  0
POINT
  8
_0-0_
 62
    2
 10
589.00000000000011
 20
864
  0
LINE
  8
_0-0_
  6
CONTINUOUS
 62
    7
 10
589.00000000000011
 20
864
 11
673.60769515458674
 21
912.84827557301435
  0
CIRCLE
  8
_0-0_
  6
CONTINUOUS
 62
    7
 10
684
 20
918.84827557301435
 40
12
  0
TEXT
  8
_0-0_
 62
    7
 10
674
 20
908.84827557301435
 40
20
 41
1
 50
0
  1
１
  0
LINE
  8
_0-2_
  6
CONTINUOUS
 62
    7
 10
629.00000000000011
 20
624
 11
179
 21
624
  0
LINE
  8
_0-2_
  6
CONTINUOUS
 62
    7
 10
629.00000000000011
 20
621
 11
179
 21
621
  0
LINE
  8
_0-3_
  6
CONTINUOUS
 62
    7
 10
629.00000000000011
 20
621
 11
185.5
 21
621
  0
LINE
  8
_0-4_
  6
CONTINUOUS
 62
    7
 10
624.00000000000011
 20
554
 11
184
 21
554
  0
LINE
  8
_0-4_
  6
CONTINUOUS
 62
    7
 10
624.00000000000011
 20
545.49999999999989
 11
184
 21
545.49999999999989
  0
LINE
  8
_0-4_
  6
CONTINUOUS
 62
    7
 10
624
 20
512.50000000000011
 11
184
 21
512.50000000000011
  0
LINE
  8
_0-4_
  6
CONTINUOUS
 62
    7
 10
624.00000000000011
 20
504
 11
184
 21
504
  0
LINE
  8
_0-3_
  6
CONTINUOUS
 62
    7
 10
622.50000000000011
 20
425.49999999999989
 11
185.5
 21
425.49999999999989
  0
LINE
  8
_0-3_
  6
CONTINUOUS
 62
    7
 10
622.50000000000011
 20
424
 11
185.5
 21
424
  0
LINE
  8
_0-0_
  6
CONTINUOUS
 62
    2
 10
164
 20
344
 11
644.00000000000011
 21
344
  0
TEXT
  8
_0-0_
 62
    7
 10
388.00000000000006
 20
346
 40
20
 41
1
 50
0
  1
480
  0
LINE
  8
_0-2_
  6
CONTINUOUS
 62
    7
 10
779
 20
624
 11
1029
 21
624
  0
LINE
  8
_0-2_
  6
CONTINUOUS
 62
    7
 10
779
 20
621
 11
1029
 21
621
  0
LINE
  8
_0-3_
  6
CONTINUOUS
 62
    7
 10
785.49999999999989
 20
621
 11
1029
 21
621
  0
LINE
  8
_0-4_
  6
CONTINUOUS
 62
    7
 10
1024
 20
554
 11
784
 21
554
  0
LINE
  8
_0-4_
  6
CONTINUOUS
 62
    7
 10
1024
 20
545.49999999999989
 11
784
 21
545.49999999999989
  0
LINE
  8
_0-4_
  6
CONTINUOUS
 62
    7
 10
1024
 20
512.50000000000011
 11
784
 21
512.50000000000011
  0
LINE
  8
_0-4_
  6
CONTINUOUS
 62
    7
 10
1024
 20
504
 11
784
 21
504
  0
LINE
  8
_0-3_
  6
CONTINUOUS
 62
    7
 10
934
 20
425.49999999999989
 11
1022.5
 21
425.49999999999989
  0
LINE
  8
_0-3_
  6
CONTINUOUS
 62
    7
 10
934
 20
424
 11
1022.5
 21
424
  0
LINE
  8
_0-0_
  6
CONTINUOUS
 62
    2
 10
764
 20
344
 11
1044
 21
344
  0
TEXT
  8
_0-0_
 62
    7
 10
888
 20
346
 40
20
 41
1
 50
0
  1
280
  0
LINE
  8
_0-3_
  6
CONTINUOUS
 62
    7
 10
785.49999999999989
 20
425.49999999999989
 11
874
 21
425.49999999999989
  0
LINE
  8
_0-3_
  6
CONTINUOUS
 62
    7
 10
785.49999999999989
 20
424
 11
874
 21
424
  0
TEXT
  8
_0-f_
 62
    7
 10
1276
 20
42
 40
18
 41
1
 50
0
  1
ＳＢ４０－１
  0
TEXT
  8
_0-f_
 62
    7
 10
1324
 20
396
 40
16
 41
1
 50
0
  1
※ 表面ヘアーライン仕上げ
  0
ENDSEC
  0
EOF
