  0
SECTION
  2
HEADER
  9
$ACADVER
  1
AC1009
  9
$INSBASE
 10
0
 20
0
 30
0
  9
$EXTMIN
 10
0
 20
0
  9
$EXTMAX
 10
1260
 20
891
  9
$LIMMIN
 10
0
 20
0
  9
$LIMMAX
 10
1260
 20
891
  9
$LTSCALE
 40
3
  0
ENDSEC
  0
SECTION
  2
TABLES
  0
TABLE
  2
LTYPE
 70
     9
  0
LTYPE
  2
CONTINUOUS
 70
    64
  3
実線
 72
    65
 73
     0
 40
0.0
  0
LTYPE
  2
DASHED1
 70
    64
  3
--  --  --  --  --  --  --  --  
 72
    65
 73
     2
 40
2.5
 49
1.25
 49
-1.25
  0
LTYPE
  2
DASHED2
 70
    64
  3
----    ----    ----    ----    
 72
    65
 73
     2
 40
5.0
 49
2.5
 49
-2.5
  0
LTYPE
  2
DASHED3
 70
    64
  3
------  ------  ------  ------  
 72
    65
 73
     2
 40
5.0
 49
3.75
 49
-1.25
  0
LTYPE
  2
CENTER1
 70
    64
  3
----- - ----- - ----- - ----- - 
 72
    65
 73
     4
 40
10.0
 49
6.25
 49
-1.25
 49
1.25
 49
-1.25
  0
LTYPE
  2
CENTER2
 70
    64
  3
----------  --  ----------  --  
 72
    65
 73
     4
 40
20.0
 49
12.5
 49
-2.5
 49
2.5
 49
-2.5
  0
LTYPE
  2
PHANTOM1
 70
    64
  3
--- - - --- - - --- - - --- - - 
 72
    65
 73
     6
 40
10.0
 49
3.25
 49
-1.25
 49
1.25
 49
-1.25
 49
1.25
 49
-1.25
  0
LTYPE
  2
PHANTOM2
 70
    64
  3
--------  -  -  --------  -  -  
 72
    65
 73
     6
 40
20.0
 49
10.0
 49
-2.5
 49
1.25
 49
-2.5
 49
1.25
 49
-2.5
  0
LTYPE
  2
DOT
 70
    64
  3
-   -   -   -   -   -   -   -   
 72
    65
 73
     2
 40
2.5
 49
0.625
 49
-1.875
  0
LTYPE
  2
DUMMY
 70
    64
  3
ダミー
 72
    65
 73
     0
 40
0.0
  0
LTYPE
  2
RAND1
 70
    64
  3
ランダム線1
 72
    65
 73
     4
 40
10.0
 49
1.0
 49
-2.0
 49
3.0
 49
-4.0
  0
LTYPE
  2
RAND2
 70
    64
  3
ランダム線2
 72
    65
 73
     4
 40
14.0
 49
2.0
 49
-3.0
 49
4.0
 49
-5.0
  0
LTYPE
  2
RAND3
 70
    64
  3
ランダム線3
 72
    65
 73
     4
 40
18.0
 49
3.0
 49
-4.0
 49
5.0
 49
-6.0
  0
LTYPE
  2
RAND4
 70
    64
  3
ランダム線4
 72
    65
 73
     4
 40
22.0
 49
4.0
 49
-5.0
 49
6.0
 49
-7.0
  0
LTYPE
  2
RAND5
 70
    64
  3
ランダム線5
 72
    65
 73
     4
 40
26.0
 49
5.0
 49
-6.0
 49
7.0
 49
-8.0
  0
LTYPE
  2
LONG1
 70
    64
  3
----------  --  ----------  --  
 72
    65
 73
     4
 40
40.0
 49
32.5
 49
-2.5
 49
2.5
 49
-2.5
  0
LTYPE
  2
LONG2
 70
    64
  3
--------  -  -  --------  -  -  
 72
    65
 73
     6
 40
40.0
 49
30.0
 49
-2.5
 49
1.25
 49
-2.5
 49
1.25
 49
-2.5
  0
LTYPE
  2
LONG3
 70
    64
  3
+++++++++++++++..+++++++++++++++
 72
    65
 73
     2
 40
40.0
 49
37.5
 49
-2.5
  0
LTYPE
  2
LONG4
 70
    64
  3
+++++++++++++++..+++++++++++++++
 72
    65
 73
     2
 40
80.0
 49
75.0
 49
-5.0
  0
LTYPE
  2
LONG5
 70
    64
  3
----------  --  ----------  --  
 72
    65
 73
     4
 40
60.0
 49
37.5
 49
-7.5
 49
7.5
 49
-7.5
  0
LTYPE
  2
dashed
 70
   64
  3
-------   -------------   ------
 72
   65
 73
    2
 40
7.5
 49
6
 49
-1.5
  0
LTYPE
  2
dashed_spaced
 70
   64
  3
----        --------        ----
 72
   65
 73
    2
 40
12
 49
6
 49
-6
  0
LTYPE
  2
long_dashed_dotted
 70
   64
  3
------------- --- --------------
 72
   65
 73
    4
 40
15.25
 49
12
 49
-1.5
 49
0.25
 49
-1.5
  0
LTYPE
  2
long_dashed_double-dotted
 70
   64
  3
----------- --- --- ------------
 72
   65
 73
    6
 40
17
 49
12
 49
-1.5
 49
0.25
 49
-1.5
 49
0.25
 49
-1.5
  0
LTYPE
  2
long_dashed_triplicate-dotted
 70
   64
  3
--------- --- --- --- ----------
 72
   65
 73
    8
 40
18.75
 49
12
 49
-1.5
 49
0.25
 49
-1.5
 49
0.25
 49
-1.5
 49
0.25
 49
-1.5
  0
LTYPE
  2
dotted
 70
   64
  3
   -       -       -       -    
 72
   65
 73
    2
 40
1.75
 49
0.25
 49
-1.5
  0
LTYPE
  2
chain
 70
   64
  3
-------------- -- --------------
 72
   65
 73
    4
 40
18.5
 49
12
 49
-1.5
 49
3.5
 49
-1.5
  0
LTYPE
  2
chain_double_dash
 70
   64
  3
------------ -- -- -------------
 72
   65
 73
    6
 40
23.5
 49
12
 49
-1.5
 49
3.5
 49
-1.5
 49
3.5
 49
-1.5
  0
LTYPE
  2
dashed_dotted
 70
   64
  3
-----------     -     ----------
 72
   65
 73
    4
 40
9.25
 49
6
 49
-1.5
 49
0.25
 49
-1.5
  0
LTYPE
  2
double-dashed_dotted
 70
   64
  3
------   -----------   -   -----
 72
   65
 73
    6
 40
16.75
 49
6
 49
-1.5
 49
6
 49
-1.5
 49
0.25
 49
-1.5
  0
LTYPE
  2
dashed_double-dotted
 70
   64
  3
---------    -    -    ---------
 72
   65
 73
    6
 40
11
 49
6
 49
-1.5
 49
0.25
 49
-1.5
 49
0.25
 49
-1.5
  0
LTYPE
  2
double-dashed_double-dotted
 70
   64
  3
-----   ---------   -   -   ----
 72
   65
 73
    8
 40
18.5
 49
6
 49
-1.5
 49
6
 49
-1.5
 49
0.25
 49
-1.5
 49
0.25
 49
-1.5
  0
LTYPE
  2
dashed_triplicate-dotted
 70
   64
  3
-------    -    -    -    ------
 72
   65
 73
    8
 40
12.75
 49
6
 49
-1.5
 49
0.25
 49
-1.5
 49
0.25
 49
-1.5
 49
0.25
 49
-1.5
  0
LTYPE
  2
double-dashed_triplicate-dotted
 70
   64
  3
-----  ---------  -  -  -  -----
 72
   65
 73
   10
 40
20.25
 49
6
 49
-1.5
 49
6
 49
-1.5
 49
0.25
 49
-1.5
 49
0.25
 49
-1.5
 49
0.25
 49
-1.5
  0
LTYPE
  2
undefined
 70
   64
  3
--------------------------------
 72
   65
 73
    0
 40
0
  0
LTYPE
  2
_
 70
   64
  3
                                
 72
   65
 73
    0
 40
0
  0
LTYPE
  2
__18
 70
   64
  3
                                
 72
   65
 73
    0
 40
0
  0
LTYPE
  2
__19
 70
   64
  3
                                
 72
   65
 73
    0
 40
0
  0
LTYPE
  2
__20
 70
   64
  3
                                
 72
   65
 73
    0
 40
0
  0
LTYPE
  2
__21
 70
   64
  3
                                
 72
   65
 73
    0
 40
0
  0
LTYPE
  2
__22
 70
   64
  3
                                
 72
   65
 73
    0
 40
0
  0
LTYPE
  2
__23
 70
   64
  3
                                
 72
   65
 73
    0
 40
0
  0
LTYPE
  2
__24
 70
   64
  3
                                
 72
   65
 73
    0
 40
0
  0
LTYPE
  2
__25
 70
   64
  3
                                
 72
   65
 73
    0
 40
0
  0
LTYPE
  2
__26
 70
   64
  3
                                
 72
   65
 73
    0
 40
0
  0
LTYPE
  2
__27
 70
   64
  3
                                
 72
   65
 73
    0
 40
0
  0
LTYPE
  2
__28
 70
   64
  3
                                
 72
   65
 73
    0
 40
0
  0
LTYPE
  2
__29
 70
   64
  3
                                
 72
   65
 73
    0
 40
0
  0
LTYPE
  2
__30
 70
   64
  3
                                
 72
   65
 73
    0
 40
0
  0
LTYPE
  2
__31
 70
   64
  3
                                
 72
   65
 73
    0
 40
0
  0
LTYPE
  2
__32
 70
   64
  3
                                
 72
   65
 73
    0
 40
0
  0
ENDTAB
  0
TABLE
  2
STYLE
  5
3
100
AcDbSymbolTable
 70
     1
  0
STYLE
  5
10
100
AcDbSymbolTableRecord
100
AcDbTextStyleTableRecord
  2
STANDARD
 70
     0
 40
0.0
 41
1.0
 50
0.0
 71
     0
 42
0.2
  3
txt
  4
bigfont.shx
  0
STYLE
  5
26
100
AcDbSymbolTableRecord
100
AcDbTextStyleTableRecord
  2
TATEGAKI
 70
    68
 40
0.0
 41
1.0
 50
0.0
 71
     0
 42
1.0
  3
txt
  4
bigfont.shx
  0
ENDTAB
  0
TABLE
  2
LAYER
 70
    9
  0
LAYER
  2
_0-0_
 70
   64
 62
    7
  6
CONTINUOUS
  0
LAYER
  2
_0-1_
 70
   64
 62
    7
  6
CONTINUOUS
  0
LAYER
  2
_0-2_
 70
   64
 62
    7
  6
CONTINUOUS
  0
LAYER
  2
_0-3_
 70
   64
 62
    7
  6
CONTINUOUS
  0
LAYER
  2
_0-4_
 70
   64
 62
    7
  6
CONTINUOUS
  0
LAYER
  2
_0-5_
 70
   64
 62
    7
  6
CONTINUOUS
  0
LAYER
  2
_0-6_
 70
   64
 62
    7
  6
CONTINUOUS
  0
LAYER
  2
_0-f_
 70
   64
 62
    7
  6
CONTINUOUS
  0
LAYER
  2
ADD_LINE
 70
   64
 62
    7
  6
CONTINUOUS
  0
ENDTAB
  0
ENDSEC
  0
SECTION
  2
BLOCKS
  0
ENDSEC
  0
SECTION
  2
ENTITIES
  0
LINE
  8
_0-f_
  6
CONTINUOUS
 62
    3
 10
30
 20
30
 11
1230
 21
30
  0
LINE
  8
_0-f_
  6
CONTINUOUS
 62
    3
 10
1230
 20
30
 11
1230
 21
861
  0
LINE
  8
_0-f_
  6
CONTINUOUS
 62
    3
 10
1230
 20
861
 11
30
 21
861
  0
LINE
  8
_0-f_
  6
CONTINUOUS
 62
    3
 10
30
 20
861
 11
30
 21
30
  0
LINE
  8
_0-f_
  6
CONTINUOUS
 62
    7
 10
660
 20
57
 11
1230
 21
57
  0
LINE
  8
_0-f_
  6
CONTINUOUS
 62
    7
 10
660
 20
111
 11
1230
 21
111
  0
LINE
  8
_0-f_
  6
CONTINUOUS
 62
    7
 10
660
 20
30
 11
660
 21
138
  0
LINE
  8
_0-f_
  6
CONTINUOUS
 62
    7
 10
660
 20
138
 11
1230
 21
138
  0
LINE
  8
_0-f_
  6
CONTINUOUS
 62
    7
 10
1179
 20
30
 11
1179
 21
57
  0
LINE
  8
_0-f_
  6
CONTINUOUS
 62
    7
 10
945
 20
57
 11
945
 21
138
  0
LINE
  8
_0-f_
  6
CONTINUOUS
 62
    7
 10
1155
 20
84
 11
1155
 21
138
  0
LINE
  8
_0-f_
  6
CONTINUOUS
 62
    7
 10
780
 20
57
 11
780
 21
111
  0
LINE
  8
_0-f_
  6
CONTINUOUS
 62
    7
 10
720
 20
57
 11
720
 21
111
  0
LINE
  8
_0-f_
  6
CONTINUOUS
 62
    7
 10
840
 20
84
 11
1230
 21
84
  0
LINE
  8
_0-f_
  6
CONTINUOUS
 62
    7
 10
840
 20
30
 11
840
 21
111
  0
TEXT
  8
_0-f_
 62
    7
 10
663
 20
126
 40
9
 41
0.6666666666666666
 50
0
  1
注
  0
TEXT
  8
_0-f_
 62
    7
 10
948
 20
126
 40
9
 41
0.6666666666666666
 50
0
  1
材質　MATERIAL
  0
POINT
  8
_0-f_
 62
    9
 10
681
 20
112.5
  0
POINT
  8
_0-f_
 62
    9
 10
972
 20
112.5
  0
POINT
  8
_0-f_
 62
    9
 10
948
 20
126
  0
TEXT
  8
_0-f_
 62
    7
 10
1158
 20
126
 40
9
 41
0.6666666666666666
 50
0
  1
個数　QUANTITY
  0
TEXT
  8
_0-f_
 62
    7
 10
663
 20
99
 40
9
 41
0.6666666666666666
 50
0
  1
APPROVED
  0
TEXT
  8
_0-f_
 62
    7
 10
723
 20
99
 40
9
 41
0.6666666666666666
 50
0
  1
CHECKED
  0
TEXT
  8
_0-f_
 62
    7
 10
783
 20
99
 40
9
 41
0.6666666666666666
 50
0
  1
DESIGNER
  0
TEXT
  8
_0-f_
 62
    7
 10
843
 20
99
 40
9
 41
0.6666666666666666
 50
0
  1
図面サイズ　SIZU
  0
TEXT
  8
_0-f_
 62
    7
 10
843
 20
72
 40
9
 41
0.6666666666666666
 50
0
  1
日付　DATE
  0
TEXT
  8
_0-f_
 62
    7
 10
948
 20
99
 40
9
 41
0.6666666666666666
 50
0
  1
表面処理　SURFACE TREATMENT
  0
TEXT
  8
_0-f_
 62
    7
 10
1158
 20
99
 40
9
 41
0.6666666666666666
 50
0
  1
尺度　SCALE
  0
TEXT
  8
_0-f_
 62
    7
 10
843
 20
43.5
 40
10.5
 41
0.7142857142857143
 50
0
  1
図　　番
  0
TEXT
  8
_0-f_
 62
    7
 10
880.5
 20
48
 40
6
 41
1
 50
0
  1
DRAWING No
  0
TEXT
  8
_0-f_
 62
    7
 10
972
 20
112.5
 40
10.5
 41
1
 50
0
  1
別記
  0
TEXT
  8
_0-f_
 62
    7
 10
957
 20
85.5
 40
10.5
 41
1
 50
0
  1
別記
  0
TEXT
  8
_0-f_
 62
    7
 10
1173
 20
112.5
 40
10.5
 41
1
 50
0
  1
別記
  0
TEXT
  8
_0-f_
 62
    7
 10
1182
 20
45
 40
9
 41
0.6666666666666666
 50
0
  1
ユニット
  0
TEXT
  8
_0-f_
 62
    7
 10
795
 20
58.5
 40
15
 41
1
 50
0
  1
玉置
  0
TEXT
  8
_0-f_
 62
    7
 10
717
 20
34.5
 40
18
 41
0.8333333333333333
 50
0
  1
株式会社アウス
  0
POINT
  8
_0-f_
 62
    9
 10
690
 20
58.5
  0
POINT
  8
_0-f_
 62
    9
 10
750
 20
58.5
  0
POINT
  8
_0-f_
 62
    9
 10
810
 20
58.5
  0
POINT
  8
_0-f_
 62
    9
 10
663
 20
99
  0
POINT
  8
_0-f_
 62
    9
 10
723
 20
99
  0
POINT
  8
_0-f_
 62
    9
 10
783
 20
99
  0
POINT
  8
_0-f_
 62
    9
 10
843
 20
99
  0
POINT
  8
_0-f_
 62
    9
 10
948
 20
99
  0
POINT
  8
_0-f_
 62
    9
 10
957
 20
85.5
  0
POINT
  8
_0-f_
 62
    9
 10
843
 20
43.5
  0
POINT
  8
_0-f_
 62
    9
 10
717
 20
34.5
  0
POINT
  8
_0-f_
 62
    9
 10
957
 20
31.5
  0
POINT
  8
_0-f_
 62
    9
 10
957
 20
58.5
  0
POINT
  8
_0-f_
 62
    9
 10
1164
 20
85.5
  0
POINT
  8
_0-f_
 62
    9
 10
1158
 20
99
  0
POINT
  8
_0-f_
 62
    9
 10
1158
 20
126
  0
POINT
  8
_0-f_
 62
    9
 10
1173
 20
112.5
  0
POINT
  8
_0-f_
 62
    9
 10
1194
 20
31.5
  0
POINT
  8
_0-f_
 62
    9
 10
1182
 20
45
  0
POINT
  8
_0-f_
 62
    9
 10
843
 20
72
  0
POINT
  8
_0-f_
 62
    9
 10
892.5
 20
85.5
  0
POINT
  8
_0-f_
 62
    9
 10
892.5
 20
58.5
  0
TEXT
  8
_0-f_
 62
    7
 10
948
 20
73.5
 40
9
 41
0.6666666666666666
 50
0
  1
図面名　TITLE
  0
POINT
  8
_0-f_
 62
    9
 10
948
 20
73.5
  0
TEXT
  8
_0-f_
 62
    7
 10
681
 20
112.5
 40
10.5
 41
1
 50
0
  1
　
  0
TEXT
  8
_0-f_
 62
    7
 10
882
 20
85.5
 40
10.5
 41
1
 50
0
  1
Ａ３
  0
TEXT
  8
_0-f_
 62
    7
 10
1164
 20
85.5
 40
10.5
 41
1
 50
0
  1
FREE
  0
POINT
  8
_0-0_
 62
    2
 10
392.99999518682523
 20
684.66666666666674
  0
LINE
  8
_0-0_
  6
CONTINUOUS
 62
    7
 10
392.99999518682523
 20
684.66666666666674
 11
445.20576655276523
 21
714.80768281804421
  0
LINE
  8
_0-5_
  6
DASHED2
 62
    4
 10
164.49999635409461
 20
275.9999947336924
 11
164.49999635409461
 21
279.99999648912825
  0
LINE
  8
_0-5_
  6
DASHED2
 62
    4
 10
164.49999635409461
 20
279.99999648912825
 11
254.50000040510054
 21
279.99999648912825
  0
LINE
  8
_0-5_
  6
DASHED2
 62
    4
 10
254.50000040510054
 20
279.99999648912825
 11
254.50000040510054
 21
275.9999947336924
  0
LINE
  8
_0-5_
  6
DASHED2
 62
    4
 10
164.49999635409461
 20
275.9999947336924
 11
254.50000040510054
 21
275.9999947336924
  0
LINE
  8
_0-5_
  6
DASHED2
 62
    4
 10
164.49999635409461
 20
277.99999324832345
 11
254.50000040510054
 21
277.99999324832345
  0
LINE
  8
_0-5_
  6
DASHED2
 62
    4
 10
592.99997028264124
 20
279.98322801129035
 11
682.99996488129989
 21
279.98322801129035
  0
LINE
  8
_0-5_
  6
DASHED2
 62
    4
 10
682.99996488129989
 20
279.98322801129035
 11
682.99996488129989
 21
277.98322477048544
  0
LINE
  8
_0-5_
  6
DASHED2
 62
    4
 10
592.99997028264124
 20
279.98322801129035
 11
592.99997028264124
 21
277.98322477048544
  0
LINE
  8
_0-6_
  6
DASHED2
 62
    4
 10
173.29999927081889
 20
279.99999648912825
 11
179.69999451763857
 21
279.99999648912825
  0
LINE
  8
_0-6_
  6
DASHED2
 62
    4
 10
222.79999440961177
 20
279.99999648912825
 11
229.19999910877863
 21
279.99999648912825
  0
LINE
  8
_0-6_
  6
DASHED2
 62
    4
 10
228.00000472617359
 20
269.99999446362534
 11
223.99999824456398
 21
269.99999446362534
  0
LINE
  8
_0-6_
  6
DASHED2
 62
    4
 10
178.50000013503353
 20
269.99999446362534
 11
174.49999365342393
 21
269.99999446362534
  0
LINE
  8
_0-6_
  6
DASHED2
 62
    4
 10
173.29999860503128
 20
281.99998337913621
 11
173.29999860503128
 21
281.99998337913621
  0
LINE
  8
_0-6_
  6
DASHED2
 62
    4
 10
173.29999860503128
 20
281.99998337913621
 11
173.24790416206594
 21
281.98479103903719
  0
LINE
  8
_0-6_
  6
DASHED2
 62
    4
 10
173.24790416206594
 20
281.98479103903719
 11
173.19739260261869
 21
281.93967612050199
  0
LINE
  8
_0-6_
  6
DASHED2
 62
    4
 10
173.19739260261869
 20
281.93967612050199
 11
173.1499986948632
 21
281.86600941750106
  0
LINE
  8
_0-6_
  6
DASHED2
 62
    4
 10
173.1499986948632
 20
281.86600941750106
 11
173.10716247870417
 21
281.76602925552788
  0
LINE
  8
_0-6_
  6
DASHED2
 62
    4
 10
173.10716247870417
 20
281.76602925552788
 11
173.07018551089342
 21
281.64277348121169
  0
LINE
  8
_0-6_
  6
DASHED2
 62
    4
 10
173.07018551089342
 20
281.64277348121169
 11
173.04019131788664
 21
281.49998715888461
  0
LINE
  8
_0-6_
  6
DASHED2
 62
    4
 10
173.04019131788664
 20
281.49998715888461
 11
173.01809125806054
 21
281.34200877869716
  0
LINE
  8
_0-6_
  6
DASHED2
 62
    4
 10
173.01809125806054
 20
281.34200877869716
 11
173.00455683054975
 21
281.17363843379042
  0
LINE
  8
_0-6_
  6
DASHED2
 62
    4
 10
173.00455683054975
 20
281.17363843379042
 11
172.99999927208546
 21
280.99999197189493
  0
LINE
  8
_0-6_
  6
DASHED2
 62
    4
 10
172.99999927208546
 20
280.99999197189493
 11
173.00455706177536
 21
280.82634555288598
  0
LINE
  8
_0-6_
  6
DASHED2
 62
    4
 10
173.00455706177536
 20
280.82634555288598
 11
173.01809171348609
 21
280.65797533533583
  0
LINE
  8
_0-6_
  6
DASHED2
 62
    4
 10
173.01809171348609
 20
280.65797533533583
 11
173.04019198367425
 21
280.49999716310538
  0
LINE
  8
_0-6_
  6
DASHED2
 62
    4
 10
173.04019198367425
 20
280.49999716310538
 11
173.07018636681346
 21
280.35721112301695
  0
LINE
  8
_0-6_
  6
DASHED2
 62
    4
 10
173.07018636681346
 20
280.35721112301695
 11
173.10716349874997
 21
280.23395569664541
  0
LINE
  8
_0-6_
  6
DASHED2
 62
    4
 10
173.10716349874997
 20
280.23395569664541
 11
173.14999984804115
 21
280.13397593775085
  0
LINE
  8
_0-6_
  6
DASHED2
 62
    4
 10
173.14999984804115
 20
280.13397593775085
 11
173.19739385389008
 21
280.06030968071508
  0
LINE
  8
_0-6_
  6
DASHED2
 62
    4
 10
173.19739385389008
 20
280.06030968071508
 11
173.24790547341155
 21
280.01519523748112
  0
LINE
  8
_0-6_
  6
DASHED2
 62
    4
 10
173.24790547341155
 20
280.01519523748112
 11
173.2999994572375
 21
280.00000338757678
  0
ARC
  8
_0-6_
  6
DASHED2
 62
    4
 10
176.49999689422873
 20
273.76666030208634
 40
8.8333342560624644
 50
68.760711669921875
 51
111.23934936523436
  0
LINE
  8
_0-6_
  6
DASHED2
 62
    4
 10
179.69999491711275
 20
280.00000338757764
 11
179.69999491711275
 21
280.00000338757764
  0
LINE
  8
_0-6_
  6
DASHED2
 62
    4
 10
179.69999491711275
 20
280.00000338757764
 11
179.75208936412403
 21
280.01519571380305
  0
LINE
  8
_0-6_
  6
DASHED2
 62
    4
 10
179.75208936412403
 20
280.01519571380305
 11
179.80260093558613
 21
280.06031061888621
  0
LINE
  8
_0-6_
  6
DASHED2
 62
    4
 10
179.80260093558613
 20
280.06031061888621
 11
179.84999486296024
 21
280.13397730926539
  0
LINE
  8
_0-6_
  6
DASHED2
 62
    4
 10
179.84999486296024
 20
280.13397730926539
 11
179.89283110574559
 21
280.23395745983055
  0
LINE
  8
_0-6_
  6
DASHED2
 62
    4
 10
179.89283110574559
 20
280.23395745983055
 11
179.92980810638133
 21
280.35721322429919
  0
LINE
  8
_0-6_
  6
DASHED2
 62
    4
 10
179.92980810638133
 20
280.35721322429919
 11
179.95980233741443
 21
280.49999953863835
  0
LINE
  8
_0-6_
  6
DASHED2
 62
    4
 10
179.95980233741443
 20
280.49999953863835
 11
179.98190243931271
 21
280.65797791294017
  0
LINE
  8
_0-6_
  6
DASHED2
 62
    4
 10
179.98190243931271
 20
280.65797791294017
 11
179.99543691166323
 21
280.82634825424248
  0
LINE
  8
_0-6_
  6
DASHED2
 62
    4
 10
179.99543691166323
 20
280.82634825424248
 11
179.99999451637237
 21
280.99999471492418
  0
LINE
  8
_0-6_
  6
DASHED2
 62
    4
 10
179.99999451637237
 20
280.99999471492418
 11
179.99543677292729
 21
281.17364113514697
  0
LINE
  8
_0-6_
  6
DASHED2
 62
    4
 10
179.99543677292729
 20
281.17364113514697
 11
179.9819021660563
 21
281.34201135630155
  0
LINE
  8
_0-6_
  6
DASHED2
 62
    4
 10
179.9819021660563
 20
281.34201135630155
 11
179.95980193794026
 21
281.49998953441769
  0
LINE
  8
_0-6_
  6
DASHED2
 62
    4
 10
179.95980193794026
 20
281.49998953441769
 11
179.92980759282725
 21
281.6427755824941
  0
LINE
  8
_0-6_
  6
DASHED2
 62
    4
 10
179.92980759282725
 20
281.6427755824941
 11
179.89283049371568
 21
281.76603101871325
  0
LINE
  8
_0-6_
  6
DASHED2
 62
    4
 10
179.89283049371568
 20
281.76603101871325
 11
179.8499941710507
 21
281.86601078901583
  0
LINE
  8
_0-6_
  6
DASHED2
 62
    4
 10
179.8499941710507
 20
281.86601078901583
 11
179.80260018482028
 21
281.9396770586734
  0
LINE
  8
_0-6_
  6
DASHED2
 62
    4
 10
179.80260018482028
 20
281.9396770586734
 11
179.75208857731351
 21
281.98479151535935
  0
LINE
  8
_0-6_
  6
DASHED2
 62
    4
 10
179.75208857731351
 20
281.98479151535935
 11
179.69999491711275
 21
281.99998337913632
  0
LINE
  8
_0-6_
  6
DASHED2
 62
    4
 10
222.79999374382416
 20
281.99998337913621
 11
222.79999374382416
 21
281.99998337913621
  0
LINE
  8
_0-6_
  6
DASHED2
 62
    4
 10
222.79999374382416
 20
281.99998337913621
 11
222.74789930085882
 21
281.98479103903719
  0
LINE
  8
_0-6_
  6
DASHED2
 62
    4
 10
222.74789930085882
 20
281.98479103903719
 11
222.69738774141157
 21
281.93967612050199
  0
LINE
  8
_0-6_
  6
DASHED2
 62
    4
 10
222.69738774141157
 20
281.93967612050199
 11
222.64999383365608
 21
281.86600941750106
  0
LINE
  8
_0-6_
  6
DASHED2
 62
    4
 10
222.64999383365608
 20
281.86600941750106
 11
222.60715761749705
 21
281.76602925552788
  0
LINE
  8
_0-6_
  6
DASHED2
 62
    4
 10
222.60715761749705
 20
281.76602925552788
 11
222.57018064968631
 21
281.64277348121169
  0
LINE
  8
_0-6_
  6
DASHED2
 62
    4
 10
222.57018064968631
 20
281.64277348121169
 11
222.54018645667952
 21
281.49998715888461
  0
LINE
  8
_0-6_
  6
DASHED2
 62
    4
 10
222.54018645667952
 20
281.49998715888461
 11
222.51808639685342
 21
281.34200877869716
  0
LINE
  8
_0-6_
  6
DASHED2
 62
    4
 10
222.51808639685342
 20
281.34200877869716
 11
222.50455196934263
 21
281.17363843379042
  0
LINE
  8
_0-6_
  6
DASHED2
 62
    4
 10
222.50455196934263
 20
281.17363843379042
 11
222.49999441087834
 21
280.99999197189493
  0
LINE
  8
_0-6_
  6
DASHED2
 62
    4
 10
222.49999441087834
 20
280.99999197189493
 11
222.50455220056824
 21
280.82634555288598
  0
LINE
  8
_0-6_
  6
DASHED2
 62
    4
 10
222.50455220056824
 20
280.82634555288598
 11
222.51808685227897
 21
280.65797533533583
  0
LINE
  8
_0-6_
  6
DASHED2
 62
    4
 10
222.51808685227897
 20
280.65797533533583
 11
222.54018712246713
 21
280.49999716310538
  0
LINE
  8
_0-6_
  6
DASHED2
 62
    4
 10
222.54018712246713
 20
280.49999716310538
 11
222.57018150560634
 21
280.35721112301695
  0
LINE
  8
_0-6_
  6
DASHED2
 62
    4
 10
222.57018150560634
 20
280.35721112301695
 11
222.60715863754285
 21
280.23395569664541
  0
LINE
  8
_0-6_
  6
DASHED2
 62
    4
 10
222.60715863754285
 20
280.23395569664541
 11
222.64999498683403
 21
280.13397593775085
  0
LINE
  8
_0-6_
  6
DASHED2
 62
    4
 10
222.64999498683403
 20
280.13397593775085
 11
222.69738899268296
 21
280.06030968071508
  0
LINE
  8
_0-6_
  6
DASHED2
 62
    4
 10
222.69738899268296
 20
280.06030968071508
 11
222.74790061220443
 21
280.01519523748112
  0
LINE
  8
_0-6_
  6
DASHED2
 62
    4
 10
222.74790061220443
 20
280.01519523748112
 11
222.79999459603039
 21
280.00000338757678
  0
ARC
  8
_0-6_
  6
DASHED2
 62
    4
 10
225.99999203302161
 20
273.76666030208634
 40
8.8333342560624644
 50
68.760711669921875
 51
111.23934936523436
  0
LINE
  8
_0-6_
  6
DASHED2
 62
    4
 10
229.1999995082528
 20
280.00000338757764
 11
229.1999995082528
 21
280.00000338757764
  0
LINE
  8
_0-6_
  6
DASHED2
 62
    4
 10
229.1999995082528
 20
280.00000338757764
 11
229.25209395526409
 21
280.01519571380305
  0
LINE
  8
_0-6_
  6
DASHED2
 62
    4
 10
229.25209395526409
 20
280.01519571380305
 11
229.30260552672618
 21
280.06031061888621
  0
LINE
  8
_0-6_
  6
DASHED2
 62
    4
 10
229.30260552672618
 20
280.06031061888621
 11
229.3499994541003
 21
280.13397730926539
  0
LINE
  8
_0-6_
  6
DASHED2
 62
    4
 10
229.3499994541003
 20
280.13397730926539
 11
229.39283569688564
 21
280.23395745983055
  0
LINE
  8
_0-6_
  6
DASHED2
 62
    4
 10
229.39283569688564
 20
280.23395745983055
 11
229.42981269752138
 21
280.35721322429919
  0
LINE
  8
_0-6_
  6
DASHED2
 62
    4
 10
229.42981269752138
 20
280.35721322429919
 11
229.45980692855449
 21
280.49999953863835
  0
LINE
  8
_0-6_
  6
DASHED2
 62
    4
 10
229.45980692855449
 20
280.49999953863835
 11
229.48190703045276
 21
280.65797791294017
  0
LINE
  8
_0-6_
  6
DASHED2
 62
    4
 10
229.48190703045276
 20
280.65797791294017
 11
229.49544150280329
 21
280.82634825424248
  0
LINE
  8
_0-6_
  6
DASHED2
 62
    4
 10
229.49544150280329
 20
280.82634825424248
 11
229.49999910751242
 21
280.99999471492418
  0
LINE
  8
_0-6_
  6
DASHED2
 62
    4
 10
229.49999910751242
 20
280.99999471492418
 11
229.49544136406735
 21
281.17364113514697
  0
LINE
  8
_0-6_
  6
DASHED2
 62
    4
 10
229.49544136406735
 20
281.17364113514697
 11
229.48190675719636
 21
281.34201135630155
  0
LINE
  8
_0-6_
  6
DASHED2
 62
    4
 10
229.48190675719636
 20
281.34201135630155
 11
229.45980652908031
 21
281.49998953441769
  0
LINE
  8
_0-6_
  6
DASHED2
 62
    4
 10
229.45980652908031
 20
281.49998953441769
 11
229.4298121839673
 21
281.6427755824941
  0
LINE
  8
_0-6_
  6
DASHED2
 62
    4
 10
229.4298121839673
 20
281.6427755824941
 11
229.39283508485573
 21
281.76603101871325
  0
LINE
  8
_0-6_
  6
DASHED2
 62
    4
 10
229.39283508485573
 20
281.76603101871325
 11
229.34999876219075
 21
281.86601078901583
  0
LINE
  8
_0-6_
  6
DASHED2
 62
    4
 10
229.34999876219075
 20
281.86601078901583
 11
229.30260477596033
 21
281.9396770586734
  0
LINE
  8
_0-6_
  6
DASHED2
 62
    4
 10
229.30260477596033
 20
281.9396770586734
 11
229.25209316845357
 21
281.98479151535935
  0
LINE
  8
_0-6_
  6
DASHED2
 62
    4
 10
229.25209316845357
 20
281.98479151535935
 11
229.1999995082528
 21
281.99998337913632
  0
LINE
  8
_0-6_
  6
DASHED2
 62
    4
 10
174.49999365342393
 20
269.99999446362534
 11
174.49999365342393
 21
275.9999947336924
  0
LINE
  8
_0-6_
  6
DASHED2
 62
    4
 10
178.50000013503353
 20
269.99999446362534
 11
178.50000013503353
 21
275.9999947336924
  0
LINE
  8
_0-6_
  6
DASHED2
 62
    4
 10
223.99999824456398
 20
269.99999446362534
 11
223.99999824456398
 21
275.9999947336924
  0
LINE
  8
_0-6_
  6
DASHED2
 62
    4
 10
228.00000472617359
 20
269.99999446362534
 11
228.00000472617359
 21
275.9999947336924
  0
LINE
  8
_0-6_
  6
DASHED2
 62
    4
 10
669.7788156055118
 20
279.98322801129035
 11
663.37882035869211
 21
279.98322801129035
  0
LINE
  8
_0-6_
  6
DASHED2
 62
    4
 10
664.57881474129715
 20
269.98324961665526
 11
668.57882122290675
 21
269.98324961665526
  0
LINE
  8
_0-6_
  6
DASHED2
 62
    4
 10
612.62111480524902
 20
279.98322801129035
 11
606.22111955842934
 21
279.98322801129035
  0
LINE
  8
_0-6_
  6
DASHED2
 62
    4
 10
607.42111394103449
 20
269.98324961665526
 11
611.42112042264387
 21
269.98324961665526
  0
LINE
  8
_0-6_
  6
DASHED2
 62
    4
 10
641.19998411007487
 20
279.98322801129035
 11
634.79998886325518
 21
279.98322801129035
  0
LINE
  8
_0-6_
  6
DASHED2
 62
    4
 10
635.99998324586022
 20
269.98324961665526
 11
639.99995191808091
 21
269.98324961665526
  0
LINE
  8
_0-6_
  6
DASHED2
 62
    4
 10
669.77881547235904
 20
279.98325854060749
 11
669.77881547235904
 21
279.98325854060749
  0
LINE
  8
_0-6_
  6
DASHED2
 62
    4
 10
669.77881547235904
 20
279.98325854060749
 11
669.83090992746224
 21
279.99845083908571
  0
LINE
  8
_0-6_
  6
DASHED2
 62
    4
 10
669.83090992746224
 20
279.99845083908571
 11
669.88142152295404
 21
280.04356571726476
  0
LINE
  8
_0-6_
  6
DASHED2
 62
    4
 10
669.88142152295404
 20
280.04356571726476
 11
669.92881548956541
 21
280.1172323824004
  0
LINE
  8
_0-6_
  6
DASHED2
 62
    4
 10
669.92881548956541
 20
280.1172323824004
 11
669.9716517856034
 21
280.21721251014958
  0
LINE
  8
_0-6_
  6
DASHED2
 62
    4
 10
669.9716517856034
 20
280.21721251014958
 11
670.00862885188906
 21
280.34046825492305
  0
LINE
  8
_0-6_
  6
DASHED2
 62
    4
 10
670.00862885188906
 20
280.34046825492305
 11
670.03862315897481
 21
280.48325455328632
  0
LINE
  8
_0-6_
  6
DASHED2
 62
    4
 10
670.03862315897481
 20
280.48325455328632
 11
670.06072334501744
 21
280.64123291581689
  0
LINE
  8
_0-6_
  6
DASHED2
 62
    4
 10
670.06072334501744
 20
280.64123291581689
 11
670.07425790704747
 21
280.80960324991025
  0
LINE
  8
_0-6_
  6
DASHED2
 62
    4
 10
670.07425790704747
 20
280.80960324991025
 11
670.0788156042463
 21
280.98324970816446
  0
LINE
  8
_0-6_
  6
DASHED2
 62
    4
 10
670.0788156042463
 20
280.98324970816446
 11
670.07425795329084
 21
281.1568961308148
  0
LINE
  8
_0-6_
  6
DASHED2
 62
    4
 10
670.07425795329084
 20
281.1568961308148
 11
670.06072343609924
 21
281.32526635917833
  0
LINE
  8
_0-6_
  6
DASHED2
 62
    4
 10
670.06072343609924
 20
281.32526635917833
 11
670.03862329212745
 21
281.48324454906572
  0
LINE
  8
_0-6_
  6
DASHED2
 62
    4
 10
670.03862329212745
 20
281.48324454906572
 11
670.00862902306699
 21
281.62603061311808
  0
LINE
  8
_0-6_
  6
DASHED2
 62
    4
 10
670.00862902306699
 20
281.62603061311808
 11
669.97165198960522
 21
281.74928606903239
  0
LINE
  8
_0-6_
  6
DASHED2
 62
    4
 10
669.97165198960522
 20
281.74928606903239
 11
669.92881572019269
 21
281.84926586215096
  0
LINE
  8
_0-6_
  6
DASHED2
 62
    4
 10
669.92881572019269
 20
281.84926586215096
 11
669.88142177319924
 21
281.92293215705206
  0
LINE
  8
_0-6_
  6
DASHED2
 62
    4
 10
669.88142177319924
 20
281.92293215705206
 11
669.83091018972198
 21
281.96804664064217
  0
LINE
  8
_0-6_
  6
DASHED2
 62
    4
 10
669.83091018972198
 20
281.96804664064217
 11
669.7788165376129
 21
281.9832385321659
  0
ARC
  8
_0-6_
  6
DASHED2
 62
    4
 10
666.5788179821019
 20
273.74989655042191
 40
8.8333342560624644
 50
68.760635375976563
 51
111.23927307128906
  0
LINE
  8
_0-6_
  6
DASHED2
 62
    4
 10
663.37882049184486
 20
281.9832385321663
 11
663.37882049184486
 21
281.9832385321663
  0
LINE
  8
_0-6_
  6
DASHED2
 62
    4
 10
663.37882049184486
 20
281.9832385321663
 11
663.32672603674166
 21
281.96804623368809
  0
LINE
  8
_0-6_
  6
DASHED2
 62
    4
 10
663.32672603674166
 20
281.96804623368809
 11
663.27621444124986
 21
281.92293135550904
  0
LINE
  8
_0-6_
  6
DASHED2
 62
    4
 10
663.27621444124986
 20
281.92293135550904
 11
663.2288204746385
 21
281.84926469037339
  0
LINE
  8
_0-6_
  6
DASHED2
 62
    4
 10
663.2288204746385
 20
281.84926469037339
 11
663.18598417860051
 21
281.74928456262421
  0
LINE
  8
_0-6_
  6
DASHED2
 62
    4
 10
663.18598417860051
 20
281.74928456262421
 11
663.14900711231485
 21
281.62602881785074
  0
LINE
  8
_0-6_
  6
DASHED2
 62
    4
 10
663.14900711231485
 20
281.62602881785074
 11
663.11901280522909
 21
281.48324251948748
  0
LINE
  8
_0-6_
  6
DASHED2
 62
    4
 10
663.11901280522909
 20
281.48324251948748
 11
663.09691261918647
 21
281.32526415695691
  0
LINE
  8
_0-6_
  6
DASHED2
 62
    4
 10
663.09691261918647
 20
281.32526415695691
 11
663.08337805715644
 21
281.15689382286354
  0
LINE
  8
_0-6_
  6
DASHED2
 62
    4
 10
663.08337805715644
 20
281.15689382286354
 11
663.0788203599576
 21
280.98324736460933
  0
LINE
  8
_0-6_
  6
DASHED2
 62
    4
 10
663.0788203599576
 20
280.98324736460933
 11
663.08337801091307
 21
280.80960094195899
  0
LINE
  8
_0-6_
  6
DASHED2
 62
    4
 10
663.08337801091307
 20
280.80960094195899
 11
663.09691252810467
 21
280.64123071359546
  0
LINE
  8
_0-6_
  6
DASHED2
 62
    4
 10
663.09691252810467
 20
280.64123071359546
 11
663.11901267207645
 21
280.48325252370807
  0
LINE
  8
_0-6_
  6
DASHED2
 62
    4
 10
663.11901267207645
 20
280.48325252370807
 11
663.14900694113692
 21
280.34046645965572
  0
LINE
  8
_0-6_
  6
DASHED2
 62
    4
 10
663.14900694113692
 20
280.34046645965572
 11
663.18598397459868
 21
280.2172110037414
  0
LINE
  8
_0-6_
  6
DASHED2
 62
    4
 10
663.18598397459868
 20
280.2172110037414
 11
663.22882024401122
 21
280.11723121062283
  0
LINE
  8
_0-6_
  6
DASHED2
 62
    4
 10
663.22882024401122
 20
280.11723121062283
 11
663.27621419100467
 21
280.04356491572173
  0
LINE
  8
_0-6_
  6
DASHED2
 62
    4
 10
663.27621419100467
 20
280.04356491572173
 11
663.32672577448193
 21
279.99845043213162
  0
LINE
  8
_0-6_
  6
DASHED2
 62
    4
 10
663.32672577448193
 20
279.99845043213162
 11
663.37881942659101
 21
279.98325854060789
  0
LINE
  8
_0-6_
  6
DASHED2
 62
    4
 10
612.62111467209627
 20
279.98325854060749
 11
612.62111467209627
 21
279.98325854060749
  0
LINE
  8
_0-6_
  6
DASHED2
 62
    4
 10
612.62111467209627
 20
279.98325854060749
 11
612.67320912719947
 21
279.99845083908571
  0
LINE
  8
_0-6_
  6
DASHED2
 62
    4
 10
612.67320912719947
 20
279.99845083908571
 11
612.72372072269127
 21
280.04356571726476
  0
LINE
  8
_0-6_
  6
DASHED2
 62
    4
 10
612.72372072269127
 20
280.04356571726476
 11
612.77111468930264
 21
280.1172323824004
  0
LINE
  8
_0-6_
  6
DASHED2
 62
    4
 10
612.77111468930264
 20
280.1172323824004
 11
612.81395098534063
 21
280.21721251014958
  0
LINE
  8
_0-6_
  6
DASHED2
 62
    4
 10
612.81395098534063
 20
280.21721251014958
 11
612.85092805162628
 21
280.34046825492305
  0
LINE
  8
_0-6_
  6
DASHED2
 62
    4
 10
612.85092805162628
 20
280.34046825492305
 11
612.88092235871204
 21
280.48325455328632
  0
LINE
  8
_0-6_
  6
DASHED2
 62
    4
 10
612.88092235871204
 20
280.48325455328632
 11
612.90302254475466
 21
280.64123291581689
  0
LINE
  8
_0-6_
  6
DASHED2
 62
    4
 10
612.90302254475466
 20
280.64123291581689
 11
612.91655710678469
 21
280.80960324991025
  0
LINE
  8
_0-6_
  6
DASHED2
 62
    4
 10
612.91655710678469
 20
280.80960324991025
 11
612.92111480398353
 21
280.98324970816446
  0
LINE
  8
_0-6_
  6
DASHED2
 62
    4
 10
612.92111480398353
 20
280.98324970816446
 11
612.91655715302807
 21
281.1568961308148
  0
LINE
  8
_0-6_
  6
DASHED2
 62
    4
 10
612.91655715302807
 20
281.1568961308148
 11
612.90302263583646
 21
281.32526635917833
  0
LINE
  8
_0-6_
  6
DASHED2
 62
    4
 10
612.90302263583646
 20
281.32526635917833
 11
612.88092249186468
 21
281.48324454906572
  0
LINE
  8
_0-6_
  6
DASHED2
 62
    4
 10
612.88092249186468
 20
281.48324454906572
 11
612.85092822280421
 21
281.62603061311808
  0
LINE
  8
_0-6_
  6
DASHED2
 62
    4
 10
612.85092822280421
 20
281.62603061311808
 11
612.81395118934245
 21
281.74928606903239
  0
LINE
  8
_0-6_
  6
DASHED2
 62
    4
 10
612.81395118934245
 20
281.74928606903239
 11
612.77111491992991
 21
281.84926586215096
  0
LINE
  8
_0-6_
  6
DASHED2
 62
    4
 10
612.77111491992991
 20
281.84926586215096
 11
612.72372097293646
 21
281.92293215705206
  0
LINE
  8
_0-6_
  6
DASHED2
 62
    4
 10
612.72372097293646
 20
281.92293215705206
 11
612.6732093894592
 21
281.96804664064217
  0
LINE
  8
_0-6_
  6
DASHED2
 62
    4
 10
612.6732093894592
 20
281.96804664064217
 11
612.62111573735012
 21
281.9832385321659
  0
ARC
  8
_0-6_
  6
DASHED2
 62
    4
 10
609.42111718183924
 20
273.74989655042191
 40
8.8333342560624644
 50
68.760635375976563
 51
111.23927307128906
  0
LINE
  8
_0-6_
  6
DASHED2
 62
    4
 10
606.22111969158209
 20
281.9832385321663
 11
606.22111969158209
 21
281.9832385321663
  0
LINE
  8
_0-6_
  6
DASHED2
 62
    4
 10
606.22111969158209
 20
281.9832385321663
 11
606.16902523647889
 21
281.96804623368809
  0
LINE
  8
_0-6_
  6
DASHED2
 62
    4
 10
606.16902523647889
 20
281.96804623368809
 11
606.11851364098709
 21
281.92293135550904
  0
LINE
  8
_0-6_
  6
DASHED2
 62
    4
 10
606.11851364098709
 20
281.92293135550904
 11
606.07111967437572
 21
281.84926469037339
  0
LINE
  8
_0-6_
  6
DASHED2
 62
    4
 10
606.07111967437572
 20
281.84926469037339
 11
606.02828337833773
 21
281.74928456262421
  0
LINE
  8
_0-6_
  6
DASHED2
 62
    4
 10
606.02828337833773
 20
281.74928456262421
 11
605.99130631205207
 21
281.62602881785074
  0
LINE
  8
_0-6_
  6
DASHED2
 62
    4
 10
605.99130631205207
 20
281.62602881785074
 11
605.96131200496632
 21
281.48324251948748
  0
LINE
  8
_0-6_
  6
DASHED2
 62
    4
 10
605.96131200496632
 20
281.48324251948748
 11
605.9392118189237
 21
281.32526415695691
  0
LINE
  8
_0-6_
  6
DASHED2
 62
    4
 10
605.9392118189237
 20
281.32526415695691
 11
605.92567725689366
 21
281.15689382286354
  0
LINE
  8
_0-6_
  6
DASHED2
 62
    4
 10
605.92567725689366
 20
281.15689382286354
 11
605.92111955969483
 21
280.98324736460933
  0
LINE
  8
_0-6_
  6
DASHED2
 62
    4
 10
605.92111955969483
 20
280.98324736460933
 11
605.92567721065029
 21
280.80960094195899
  0
LINE
  8
_0-6_
  6
DASHED2
 62
    4
 10
605.92567721065029
 20
280.80960094195899
 11
605.93921172784189
 21
280.64123071359546
  0
LINE
  8
_0-6_
  6
DASHED2
 62
    4
 10
605.93921172784189
 20
280.64123071359546
 11
605.96131187181368
 21
280.48325252370807
  0
LINE
  8
_0-6_
  6
DASHED2
 62
    4
 10
605.96131187181368
 20
280.48325252370807
 11
605.99130614087414
 21
280.34046645965572
  0
LINE
  8
_0-6_
  6
DASHED2
 62
    4
 10
605.99130614087414
 20
280.34046645965572
 11
606.02828317433591
 21
280.2172110037414
  0
LINE
  8
_0-6_
  6
DASHED2
 62
    4
 10
606.02828317433591
 20
280.2172110037414
 11
606.07111944374844
 21
280.11723121062283
  0
LINE
  8
_0-6_
  6
DASHED2
 62
    4
 10
606.07111944374844
 20
280.11723121062283
 11
606.1185133907419
 21
280.04356491572173
  0
LINE
  8
_0-6_
  6
DASHED2
 62
    4
 10
606.1185133907419
 20
280.04356491572173
 11
606.16902497421916
 21
279.99845043213162
  0
LINE
  8
_0-6_
  6
DASHED2
 62
    4
 10
606.16902497421916
 20
279.99845043213162
 11
606.22111862632823
 21
279.98325854060789
  0
LINE
  8
_0-6_
  6
DASHED2
 62
    4
 10
641.19998397692211
 20
279.98325854060749
 11
641.19998397692211
 21
279.98325854060749
  0
LINE
  8
_0-6_
  6
DASHED2
 62
    4
 10
641.19998397692211
 20
279.98325854060749
 11
641.25207843202531
 21
279.99845083908571
  0
LINE
  8
_0-6_
  6
DASHED2
 62
    4
 10
641.25207843202531
 20
279.99845083908571
 11
641.30259002751711
 21
280.04356571726476
  0
LINE
  8
_0-6_
  6
DASHED2
 62
    4
 10
641.30259002751711
 20
280.04356571726476
 11
641.34998399412848
 21
280.1172323824004
  0
LINE
  8
_0-6_
  6
DASHED2
 62
    4
 10
641.34998399412848
 20
280.1172323824004
 11
641.39282029016647
 21
280.21721251014958
  0
LINE
  8
_0-6_
  6
DASHED2
 62
    4
 10
641.39282029016647
 20
280.21721251014958
 11
641.42979735645213
 21
280.34046825492305
  0
LINE
  8
_0-6_
  6
DASHED2
 62
    4
 10
641.42979735645213
 20
280.34046825492305
 11
641.45979166353789
 21
280.48325455328632
  0
LINE
  8
_0-6_
  6
DASHED2
 62
    4
 10
641.45979166353789
 20
280.48325455328632
 11
641.48189184958051
 21
280.64123291581689
  0
LINE
  8
_0-6_
  6
DASHED2
 62
    4
 10
641.48189184958051
 20
280.64123291581689
 11
641.49542641161054
 21
280.80960324991025
  0
LINE
  8
_0-6_
  6
DASHED2
 62
    4
 10
641.49542641161054
 20
280.80960324991025
 11
641.49998410880937
 21
280.98324970816446
  0
LINE
  8
_0-6_
  6
DASHED2
 62
    4
 10
641.49998410880937
 20
280.98324970816446
 11
641.49542645785391
 21
281.1568961308148
  0
LINE
  8
_0-6_
  6
DASHED2
 62
    4
 10
641.49542645785391
 20
281.1568961308148
 11
641.48189194066231
 21
281.32526635917833
  0
LINE
  8
_0-6_
  6
DASHED2
 62
    4
 10
641.48189194066231
 20
281.32526635917833
 11
641.45979179669052
 21
281.48324454906572
  0
LINE
  8
_0-6_
  6
DASHED2
 62
    4
 10
641.45979179669052
 20
281.48324454906572
 11
641.42979752763006
 21
281.62603061311808
  0
LINE
  8
_0-6_
  6
DASHED2
 62
    4
 10
641.42979752763006
 20
281.62603061311808
 11
641.39282049416829
 21
281.74928606903239
  0
LINE
  8
_0-6_
  6
DASHED2
 62
    4
 10
641.39282049416829
 20
281.74928606903239
 11
641.34998422475576
 21
281.84926586215096
  0
LINE
  8
_0-6_
  6
DASHED2
 62
    4
 10
641.34998422475576
 20
281.84926586215096
 11
641.30259027776231
 21
281.92293215705206
  0
LINE
  8
_0-6_
  6
DASHED2
 62
    4
 10
641.30259027776231
 20
281.92293215705206
 11
641.25207869428505
 21
281.96804664064217
  0
LINE
  8
_0-6_
  6
DASHED2
 62
    4
 10
641.25207869428505
 20
281.96804664064217
 11
641.19998504217597
 21
281.9832385321659
  0
ARC
  8
_0-6_
  6
DASHED2
 62
    4
 10
637.99998648666497
 20
273.74989655042191
 40
8.8333342560624644
 50
68.760635375976563
 51
111.23927307128906
  0
LINE
  8
_0-6_
  6
DASHED2
 62
    4
 10
634.79998899640793
 20
281.9832385321663
 11
634.79998899640793
 21
281.9832385321663
  0
LINE
  8
_0-6_
  6
DASHED2
 62
    4
 10
634.79998899640793
 20
281.9832385321663
 11
634.74789454130473
 21
281.96804623368809
  0
LINE
  8
_0-6_
  6
DASHED2
 62
    4
 10
634.74789454130473
 20
281.96804623368809
 11
634.69738294581293
 21
281.92293135550904
  0
LINE
  8
_0-6_
  6
DASHED2
 62
    4
 10
634.69738294581293
 20
281.92293135550904
 11
634.64998897920157
 21
281.84926469037339
  0
LINE
  8
_0-6_
  6
DASHED2
 62
    4
 10
634.64998897920157
 20
281.84926469037339
 11
634.60715268316358
 21
281.74928456262421
  0
LINE
  8
_0-6_
  6
DASHED2
 62
    4
 10
634.60715268316358
 20
281.74928456262421
 11
634.57017561687792
 21
281.62602881785074
  0
LINE
  8
_0-6_
  6
DASHED2
 62
    4
 10
634.57017561687792
 20
281.62602881785074
 11
634.54018130979216
 21
281.48324251948748
  0
LINE
  8
_0-6_
  6
DASHED2
 62
    4
 10
634.54018130979216
 20
281.48324251948748
 11
634.51808112374954
 21
281.32526415695691
  0
LINE
  8
_0-6_
  6
DASHED2
 62
    4
 10
634.51808112374954
 20
281.32526415695691
 11
634.50454656171951
 21
281.15689382286354
  0
LINE
  8
_0-6_
  6
DASHED2
 62
    4
 10
634.50454656171951
 20
281.15689382286354
 11
634.49998886452067
 21
280.98324736460933
  0
LINE
  8
_0-6_
  6
DASHED2
 62
    4
 10
634.49998886452067
 20
280.98324736460933
 11
634.50454651547614
 21
280.80960094195899
  0
LINE
  8
_0-6_
  6
DASHED2
 62
    4
 10
634.50454651547614
 20
280.80960094195899
 11
634.51808103266774
 21
280.64123071359546
  0
LINE
  8
_0-6_
  6
DASHED2
 62
    4
 10
634.51808103266774
 20
280.64123071359546
 11
634.54018117663952
 21
280.48325252370807
  0
LINE
  8
_0-6_
  6
DASHED2
 62
    4
 10
634.54018117663952
 20
280.48325252370807
 11
634.57017544569999
 21
280.34046645965572
  0
LINE
  8
_0-6_
  6
DASHED2
 62
    4
 10
634.57017544569999
 20
280.34046645965572
 11
634.60715247916175
 21
280.2172110037414
  0
LINE
  8
_0-6_
  6
DASHED2
 62
    4
 10
634.60715247916175
 20
280.2172110037414
 11
634.64998874857429
 21
280.11723121062283
  0
LINE
  8
_0-6_
  6
DASHED2
 62
    4
 10
634.64998874857429
 20
280.11723121062283
 11
634.69738269556774
 21
280.04356491572173
  0
LINE
  8
_0-6_
  6
DASHED2
 62
    4
 10
634.69738269556774
 20
280.04356491572173
 11
634.747894279045
 21
279.99845043213162
  0
LINE
  8
_0-6_
  6
DASHED2
 62
    4
 10
634.747894279045
 20
279.99845043213162
 11
634.79998793115408
 21
279.98325854060789
  0
LINE
  8
_0-6_
  6
DASHED2
 62
    4
 10
607.42111394103449
 20
269.98324961665526
 11
607.42111394103449
 21
275.98322152968063
  0
LINE
  8
_0-6_
  6
DASHED2
 62
    4
 10
611.42112042264387
 20
269.98324961665526
 11
611.42112042264387
 21
275.98322152968063
  0
LINE
  8
_0-6_
  6
DASHED2
 62
    4
 10
635.99998324586022
 20
269.98324961665526
 11
635.99998324586022
 21
275.98322152968063
  0
LINE
  8
_0-6_
  6
DASHED2
 62
    4
 10
639.99995191808091
 20
269.98324961665526
 11
639.99995191808091
 21
275.98322152968063
  0
LINE
  8
_0-6_
  6
DASHED2
 62
    4
 10
664.57881474129715
 20
269.98324961665526
 11
664.57881474129715
 21
275.98322152968063
  0
LINE
  8
_0-6_
  6
DASHED2
 62
    4
 10
668.57882122290675
 20
269.98324961665526
 11
668.57882122290675
 21
275.98322152968063
  0
LINE
  8
_0-4_
  6
DASHED2
 62
    4
 10
277.01312836503553
 20
406.08853284447605
 11
318.94309781504944
 21
333.46361602513144
  0
LINE
  8
_0-4_
  6
DASHED2
 62
    4
 10
275.07055758585966
 20
364.27258705881849
 11
286.88394988743602
 21
320.18429700463219
  0
ARC
  8
_0-4_
  6
DASHED2
 62
    4
 10
303.78765801623854
 20
324.71362547747862
 40
17.5
 50
194.99998474121097
 51
29.999954223632852
  0
ARC
  8
_0-4_
  6
DASHED2
 62
    4
 10
273.00000202550291
 20
371.99999432859175
 40
7.9999999662416155
 50
270
 51
118.78451538085939
  0
ARC
  8
_0-4_
  6
DASHED2
 62
    4
 10
273.00000202550291
 20
371.99999432859175
 40
7.0000001181543388
 50
270
 51
90.000030517578139
  0
ARC
  8
_0-4_
  6
DASHED2
 62
    4
 10
273.00000202550291
 20
371.99999432859175
 40
7.0000001181543388
 50
134.4153137207031
 51
270
  0
ARC
  8
_0-4_
  6
DASHED2
 62
    4
 10
273.00000202550291
 20
371.99999432859175
 40
7.9999999662416155
 50
141.31779479980469
 51
270
  0
ARC
  8
_0-4_
  6
DASHED2
 62
    4
 10
272.98686326288532
 20
413.01674415790939
 40
7.9999999662416155
 50
124.09336853027345
 51
270.10748291015631
  0
ARC
  8
_0-4_
  6
DASHED2
 62
    4
 10
273.01314078812038
 20
413.01674415790939
 40
7.0000001181543388
 50
269.89250183105469
 51
90.215011596679645
  0
ARC
  8
_0-4_
  6
DASHED2
 62
    4
 10
273.01314078812038
 20
413.01674415790939
 40
7.9999999662416155
 50
269.89250183105469
 51
108.1598205566406
  0
ARC
  8
_0-4_
  6
DASHED2
 62
    4
 10
272.98686326288532
 20
413.01674415790939
 40
7.0000001181543388
 50
121.00271606445311
 51
270.10748291015625
  0
ARC
  8
_0-4_
  6
DASHED2
 62
    4
 10
741.99996596156825
 20
372.33322736312931
 40
7.9999999662416155
 50
56.220718383789063
 51
35.565521240234318
  0
ARC
  8
_0-4_
  6
DASHED2
 62
    4
 10
741.99996596156825
 20
372.33322736312931
 40
7.0000001181543388
 50
71.86004638671875
 51
41.671142578125057
  0
ARC
  8
_0-4_
  6
DASHED2
 62
    4
 10
713.06878877164843
 20
412.98285747927974
 40
7.9999999662416155
 50
97.181228637695312
 51
82.821823120117131
  0
ARC
  8
_0-4_
  6
DASHED2
 62
    4
 10
713.06878877164843
 20
412.98285747927974
 40
7.0000001181543388
 50
98.1981201171875
 51
81.788894653320284
  0
LINE
  8
_0-4_
  6
DASHED2
 62
    4
 10
713.06878877164843
 20
404.97600101668286
 11
713.06878877164843
 21
311.98324205477752
  0
LINE
  8
_0-4_
  6
DASHED2
 62
    4
 10
741.99996596156825
 20
364.33533172568474
 11
741.99996596156825
 21
311.98324205477752
  0
ARC
  8
_0-4_
  6
DASHED2
 62
    4
 10
727.06877364789295
 20
311.98324205477752
 40
14.000000236308678
 50
180
 51
270
  0
ARC
  8
_0-4_
  6
DASHED2
 62
    4
 10
727.99998108532361
 20
311.98324205477752
 40
14.000000236308678
 50
270
 51
359.99996948242187
  0
LINE
  8
_0-3_
  6
DASHED2
 62
    4
 10
285.49999392349105
 20
376.50000162040243
 11
285.49999392349105
 21
379.50000648160955
  0
LINE
  8
_0-3_
  6
DASHED2
 62
    4
 10
260.49999122282031
 20
376.50000162040243
 11
260.49999122282031
 21
379.50000648160955
  0
LINE
  8
_0-3_
  6
DASHED2
 62
    4
 10
265.65153935525262
 20
378.99999621906119
 11
273.00000202550291
 21
378.99999621906119
  0
LINE
  8
_0-3_
  6
DASHED2
 62
    4
 10
280.34846469575325
 20
378.99999621906119
 11
276.89915196241532
 21
378.99999621906119
  0
LINE
  8
_0-3_
  6
DASHED2
 62
    4
 10
280.34846469575325
 20
376.99999297825639
 11
279.24499768282453
 21
376.99999297825639
  0
LINE
  8
_0-3_
  6
DASHED2
 62
    4
 10
265.65152045055822
 20
376.99999297825639
 11
277.90588365402891
 21
376.99999297825639
  0
LINE
  8
_0-3_
  6
DASHED2
 62
    4
 10
285.49999348040689
 20
379.50000879855969
 11
285.49999348040689
 21
379.50000879855969
  0
LINE
  8
_0-3_
  6
DASHED2
 62
    4
 10
285.49999348040689
 20
379.50000879855969
 11
285.46049275049546
 21
379.5868328518265
  0
LINE
  8
_0-3_
  6
DASHED2
 62
    4
 10
285.46049275049546
 20
379.5868328518265
 11
285.3431925462711
 21
379.67101872977048
  0
LINE
  8
_0-3_
  6
DASHED2
 62
    4
 10
285.3431925462711
 20
379.67101872977048
 11
285.1516569750824
 21
379.7500084870905
  0
LINE
  8
_0-3_
  6
DASHED2
 62
    4
 10
285.1516569750824
 20
379.7500084870905
 11
284.89170574833815
 21
379.8214020599811
  0
LINE
  8
_0-3_
  6
DASHED2
 62
    4
 10
284.89170574833815
 20
379.8214020599811
 11
284.57123735252145
 21
379.88303019085691
  0
LINE
  8
_0-3_
  6
DASHED2
 62
    4
 10
284.57123735252145
 20
379.88303019085691
 11
284.1999890576742
 21
379.93302034014658
  0
LINE
  8
_0-3_
  6
DASHED2
 62
    4
 10
284.1999890576742
 20
379.93302034014658
 11
283.78924105537476
 21
379.96985358246013
  0
LINE
  8
_0-3_
  6
DASHED2
 62
    4
 10
283.78924105537476
 20
379.96985358246013
 11
283.3514737158244
 21
379.99241075836852
  0
LINE
  8
_0-3_
  6
DASHED2
 62
    4
 10
283.3514737158244
 20
379.99241075836852
 11
282.89999322506759
 21
380.00000647949958
  0
LINE
  8
_0-3_
  6
DASHED2
 62
    4
 10
282.89999375769986
 20
376.0000016225124
 11
282.89999375769986
 21
376.0000016225124
  0
LINE
  8
_0-3_
  6
DASHED2
 62
    4
 10
282.89999375769986
 20
376.0000016225124
 11
283.35147901368265
 21
376.00759798644981
  0
LINE
  8
_0-3_
  6
DASHED2
 62
    4
 10
283.35147901368265
 20
376.00759798644981
 11
283.78924611053316
 21
376.03015578563668
  0
LINE
  8
_0-3_
  6
DASHED2
 62
    4
 10
283.78924611053316
 20
376.03015578563668
 11
284.19999371653432
 21
376.06698961275936
  0
LINE
  8
_0-3_
  6
DASHED2
 62
    4
 10
284.19999371653432
 20
376.06698961275936
 11
284.57124147352613
 21
376.11698029061967
  0
LINE
  8
_0-3_
  6
DASHED2
 62
    4
 10
284.57124147352613
 20
376.11698029061967
 11
284.89170920627282
 21
376.17860887776732
  0
LINE
  8
_0-3_
  6
DASHED2
 62
    4
 10
284.89170920627282
 20
376.17860887776732
 11
285.15165966487945
 21
376.25000282076729
  0
LINE
  8
_0-3_
  6
DASHED2
 62
    4
 10
285.15165966487945
 20
376.25000282076729
 11
285.34319438620241
 21
376.32899285078872
  0
LINE
  8
_0-3_
  6
DASHED2
 62
    4
 10
285.34319438620241
 20
376.32899285078872
 11
285.4604936846556
 21
376.4131788957402
  0
LINE
  8
_0-3_
  6
DASHED2
 62
    4
 10
285.4604936846556
 20
376.4131788957402
 11
285.49999348040785
 21
376.5000020731398
  0
LINE
  8
_0-3_
  6
DASHED2
 62
    4
 10
282.89999295875151
 20
379.99999621484125
 11
282.89999295875151
 21
379.99999621484125
  0
LINE
  8
_0-3_
  6
DASHED2
 62
    4
 10
282.89999295875151
 20
379.99999621484125
 11
282.45692964339594
 21
379.98480373192774
  0
LINE
  8
_0-3_
  6
DASHED2
 62
    4
 10
282.45692964339594
 20
379.98480373192774
 11
282.02732859886032
 21
379.93968837107246
  0
LINE
  8
_0-3_
  6
DASHED2
 62
    4
 10
282.02732859886032
 20
379.93968837107246
 11
281.62424303549426
 21
379.86602093968548
  0
LINE
  8
_0-3_
  6
DASHED2
 62
    4
 10
281.62424303549426
 20
379.86602093968548
 11
281.2599205041696
 21
379.76603978539202
  0
LINE
  8
_0-3_
  6
DASHED2
 62
    4
 10
281.2599205041696
 20
379.76603978539202
 11
280.9454307606444
 21
379.64278278497233
  0
LINE
  8
_0-3_
  6
DASHED2
 62
    4
 10
280.9454307606444
 20
379.64278278497233
 11
280.69032941663625
 21
379.49999504001306
  0
LINE
  8
_0-3_
  6
DASHED2
 62
    4
 10
280.69032941663625
 20
379.49999504001306
 11
280.50236759739539
 21
379.34201508389083
  0
LINE
  8
_0-3_
  6
DASHED2
 62
    4
 10
280.50236759739539
 20
379.34201508389083
 11
280.38725642768605
 21
379.17364305763067
  0
LINE
  8
_0-3_
  6
DASHED2
 62
    4
 10
280.38725642768605
 20
379.17364305763067
 11
280.34849350215177
 21
378.99999592531452
  0
LINE
  8
_0-3_
  6
DASHED2
 62
    4
 10
280.34849350215291
 20
376.99999055398087
 11
280.34849350215291
 21
376.99999055398087
  0
LINE
  8
_0-3_
  6
DASHED2
 62
    4
 10
280.34849350215291
 20
376.99999055398087
 11
280.38725708464887
 21
376.82634241387723
  0
LINE
  8
_0-3_
  6
DASHED2
 62
    4
 10
280.38725708464887
 20
376.82634241387723
 11
280.50236889135749
 21
376.65797055830086
  0
LINE
  8
_0-3_
  6
DASHED2
 62
    4
 10
280.50236889135749
 20
376.65797055830086
 11
280.69033130828132
 21
376.49999088088316
  0
LINE
  8
_0-3_
  6
DASHED2
 62
    4
 10
280.69033130828132
 20
376.49999088088316
 11
280.94543319249573
 21
376.35720351418087
  0
LINE
  8
_0-3_
  6
DASHED2
 62
    4
 10
280.94543319249573
 20
376.35720351418087
 11
281.2599234023366
 21
376.23394698007735
  0
LINE
  8
_0-3_
  6
DASHED2
 62
    4
 10
281.2599234023366
 20
376.23394698007735
 11
281.6242463119176
 21
376.13396636599049
  0
LINE
  8
_0-3_
  6
DASHED2
 62
    4
 10
281.6242463119176
 20
376.13396636599049
 11
282.02733215398752
 21
376.06029953228676
  0
LINE
  8
_0-3_
  6
DASHED2
 62
    4
 10
282.02733215398752
 20
376.06029953228676
 11
282.4569333692063
 21
376.01518480843094
  0
LINE
  8
_0-3_
  6
DASHED2
 62
    4
 10
282.4569333692063
 20
376.01518480843094
 11
282.89999402401594
 21
375.99999298247633
  0
LINE
  8
_0-3_
  6
DASHED2
 62
    4
 10
263.09999192124377
 20
380.00000647949958
 11
263.09999192124377
 21
380.00000647949958
  0
LINE
  8
_0-3_
  6
DASHED2
 62
    4
 10
263.09999192124377
 20
380.00000647949958
 11
262.64850665716904
 21
379.99241059651331
  0
LINE
  8
_0-3_
  6
DASHED2
 62
    4
 10
262.64850665716904
 20
379.99241059651331
 11
262.21073953628877
 21
379.96985326366422
  0
LINE
  8
_0-3_
  6
DASHED2
 62
    4
 10
262.21073953628877
 20
379.96985326366422
 11
261.79999189105007
 21
379.93301987409637
  0
LINE
  8
_0-3_
  6
DASHED2
 62
    4
 10
261.79999189105007
 20
379.93301987409637
 11
261.42874408080519
 21
379.88302959171313
  0
LINE
  8
_0-3_
  6
DASHED2
 62
    4
 10
261.42874408080519
 20
379.88302959171313
 11
261.10827628240793
 21
379.8214013459484
  0
LINE
  8
_0-3_
  6
DASHED2
 62
    4
 10
261.10827628240793
 20
379.8214013459484
 11
260.84832574774805
 21
379.75000767986444
  0
LINE
  8
_0-3_
  6
DASHED2
 62
    4
 10
260.84832574774805
 20
379.75000767986444
 11
260.65679094227988
 21
379.6710178538782
  0
LINE
  8
_0-3_
  6
DASHED2
 62
    4
 10
260.65679094227988
 20
379.6710178538782
 11
260.53949155414637
 21
379.58683193388151
  0
LINE
  8
_0-3_
  6
DASHED2
 62
    4
 10
260.53949155414637
 20
379.58683193388151
 11
260.49999166590447
 21
379.50000879855969
  0
LINE
  8
_0-3_
  6
DASHED2
 62
    4
 10
260.49999166589947
 20
376.50000287208815
 11
260.49999166589947
 21
376.50000287208815
  0
LINE
  8
_0-3_
  6
DASHED2
 62
    4
 10
260.49999166589947
 20
376.50000287208815
 11
260.53949158189357
 21
376.41317876460511
  0
LINE
  8
_0-3_
  6
DASHED2
 62
    4
 10
260.53949158189357
 20
376.41317876460511
 11
260.65679099693119
 21
376.32899272566095
  0
LINE
  8
_0-3_
  6
DASHED2
 62
    4
 10
260.65679099693119
 20
376.32899272566095
 11
260.8483258276429
 21
376.25000270544888
  0
LINE
  8
_0-3_
  6
DASHED2
 62
    4
 10
260.8483258276429
 20
376.25000270544888
 11
261.10827638511876
 21
376.17860877576209
  0
LINE
  8
_0-3_
  6
DASHED2
 62
    4
 10
261.10827638511876
 20
376.17860877576209
 11
261.42874420321118
 21
376.11698020502706
  0
LINE
  8
_0-3_
  6
DASHED2
 62
    4
 10
261.42874420321118
 20
376.11698020502706
 11
261.79999202943202
 21
376.06698954618003
  0
LINE
  8
_0-3_
  6
DASHED2
 62
    4
 10
261.79999202943202
 20
376.06698954618003
 11
262.21073968644197
 21
376.03015574009362
  0
LINE
  8
_0-3_
  6
DASHED2
 62
    4
 10
262.21073968644197
 20
376.03015574009362
 11
262.64850681453112
 21
376.00759796332682
  0
LINE
  8
_0-3_
  6
DASHED2
 62
    4
 10
262.64850681453112
 20
376.00759796332682
 11
263.09999138861156
 21
376.0000016225124
  0
LINE
  8
_0-3_
  6
DASHED2
 62
    4
 10
265.65149164415959
 20
378.99999592531452
 11
265.65149164415959
 21
378.99999592531452
  0
LINE
  8
_0-3_
  6
DASHED2
 62
    4
 10
265.65149164415959
 20
378.99999592531452
 11
265.61272824664485
 21
379.17364410671149
  0
LINE
  8
_0-3_
  6
DASHED2
 62
    4
 10
265.61272824664485
 20
379.17364410671149
 11
265.49761661929682
 21
379.3420160849123
  0
LINE
  8
_0-3_
  6
DASHED2
 62
    4
 10
265.49761661929682
 20
379.3420160849123
 11
265.30965437066322
 21
379.49999596255958
  0
LINE
  8
_0-3_
  6
DASHED2
 62
    4
 10
265.30965437066322
 20
379.49999596255958
 11
265.05455263855532
 21
379.64278360101275
  0
LINE
  8
_0-3_
  6
DASHED2
 62
    4
 10
265.05455263855532
 20
379.64278360101275
 11
264.74006256001542
 21
379.76604047013149
  0
LINE
  8
_0-3_
  6
DASHED2
 62
    4
 10
264.74006256001542
 20
379.76604047013149
 11
264.37573975694039
 21
379.86602147231849
  0
LINE
  8
_0-3_
  6
DASHED2
 62
    4
 10
264.37573975694039
 20
379.86602147231849
 11
263.97265399334538
 21
379.93968873541519
  0
LINE
  8
_0-3_
  6
DASHED2
 62
    4
 10
263.97265399334538
 20
379.93968873541519
 11
263.54305282618594
 21
379.98480391690987
  0
LINE
  8
_0-3_
  6
DASHED2
 62
    4
 10
263.54305282618594
 20
379.98480391690987
 11
263.09999218755985
 21
379.99999621484125
  0
LINE
  8
_0-3_
  6
DASHED2
 62
    4
 10
263.09999112229542
 20
375.99999298247633
 11
263.09999112229542
 21
375.99999298247633
  0
LINE
  8
_0-3_
  6
DASHED2
 62
    4
 10
263.09999112229542
 20
375.99999298247633
 11
263.54305445383477
 21
376.01518499341023
  0
LINE
  8
_0-3_
  6
DASHED2
 62
    4
 10
263.54305445383477
 20
376.01518499341023
 11
263.97265554642991
 21
376.06029989662676
  0
LINE
  8
_0-3_
  6
DASHED2
 62
    4
 10
263.97265554642991
 20
376.06029989662676
 11
264.37574118827104
 21
376.133966898621
  0
LINE
  8
_0-3_
  6
DASHED2
 62
    4
 10
264.37574118827104
 20
376.133966898621
 11
264.7400638261019
 21
376.23394766481459
  0
LINE
  8
_0-3_
  6
DASHED2
 62
    4
 10
264.7400638261019
 20
376.23394766481459
 11
265.05455370092818
 21
376.35720433021947
  0
LINE
  8
_0-3_
  6
DASHED2
 62
    4
 10
265.05455370092818
 20
376.35720433021947
 11
265.3096551970429
 21
376.4999918034282
  0
LINE
  8
_0-3_
  6
DASHED2
 62
    4
 10
265.3096551970429
 20
376.4999918034282
 11
265.4976171845741
 21
376.65797155932131
  0
LINE
  8
_0-3_
  6
DASHED2
 62
    4
 10
265.4976171845741
 20
376.65797155932131
 11
265.61272853364409
 21
376.8263434629576
  0
LINE
  8
_0-3_
  6
DASHED2
 62
    4
 10
265.61272853364409
 20
376.8263434629576
 11
265.65149164415845
 21
376.99999055398087
  0
LINE
  8
_0-1_
  6
CONTINUOUS
 62
    7
 10
139.00001233608376
 20
751.99997407356193
 11
407.00000706977596
 21
751.99997407356193
  0
LINE
  8
_0-1_
  6
CONTINUOUS
 62
    7
 10
139.00001233608376
 20
751.99997407356193
 11
139.00001233608376
 21
533.99998001503729
  0
CIRCLE
  8
_0-1_
  6
CONTINUOUS
 62
    7
 10
273.00001679219025
 20
558.99998271570803
 40
9.9999996624161707
  0
LINE
  8
_0-1_
  6
CONTINUOUS
 62
    7
 10
139.00001233608376
 20
533.99998001503729
 11
407.00000706977596
 21
533.99998001503729
  0
LINE
  8
_0-1_
  6
CONTINUOUS
 62
    7
 10
407.00000706977596
 20
533.99998001503729
 11
407.00000706977596
 21
751.99997407356193
  0
TEXT
  8
_0-1_
 62
    7
 10
209.40000970292991
 20
627.09997704429964
 40
31.799999999999997
 41
1
 50
0
  1
散 水 栓
  0
LINE
  8
_0-2_
  6
CONTINUOUS
 62
    7
 10
123.00001476668737
 20
767.99998523332249
 11
138.00001544185503
 21
752.99999459865876
  0
LINE
  8
_0-2_
  6
CONTINUOUS
 62
    7
 10
138.00001544185503
 20
752.99999459865876
 11
408.00002759487273
 21
752.99999459865876
  0
LINE
  8
_0-2_
  6
CONTINUOUS
 62
    7
 10
138.00001544185503
 20
752.99999459865876
 11
138.00001544185503
 21
532.99999729932938
  0
LINE
  8
_0-2_
  6
CONTINUOUS
 62
    7
 10
123
 20
768
 11
423.00003299621414
 21
768
  0
LINE
  8
_0-2_
  6
CONTINUOUS
 62
    7
 10
138.00001544185503
 20
532.99999729932938
 11
408.00002759487273
 21
532.99999729932938
  0
LINE
  8
_0-2_
  6
CONTINUOUS
 62
    7
 10
138.00001544185503
 20
532.99999729932938
 11
123.00002008101401
 21
517.99999189798814
  0
LINE
  8
_0-2_
  6
CONTINUOUS
 62
    7
 10
123.00002008101401
 20
517.99999189798814
 11
423.00001291521352
 21
517.99999189798814
  0
LINE
  8
_0-2_
  6
CONTINUOUS
 62
    7
 10
123.00001476668737
 20
767.99998523332249
 11
123.00001476668737
 21
517.99998658365791
  0
LINE
  8
_0-2_
  6
CONTINUOUS
 62
    7
 10
408.00002759487273
 20
532.99999729932938
 11
422.99999518682523
 21
518.00000962640013
  0
LINE
  8
_0-2_
  6
CONTINUOUS
 62
    7
 10
422.99999518682523
 20
518.00000962640013
 11
422.99999518682523
 21
767.99996219061109
  0
LINE
  8
_0-2_
  6
CONTINUOUS
 62
    7
 10
408.00002759487273
 20
532.99999729932938
 11
408.00002759487273
 21
752.99999459865876
  0
LINE
  8
_0-2_
  6
CONTINUOUS
 62
    7
 10
408.00002759487273
 20
752.99999459865876
 11
423.00003299621414
 21
768
  0
LINE
  8
_0-2_
  6
CONTINUOUS
 62
    7
 10
123
 20
428.00000000000006
 11
123
 21
424.99999513879294
  0
LINE
  8
_0-2_
  6
CONTINUOUS
 62
    7
 10
123
 20
428.00000000000006
 11
422.99998042013783
 21
428.00000000000006
  0
LINE
  8
_0-2_
  6
CONTINUOUS
 62
    7
 10
422.99998042013783
 20
424.99999513879294
 11
123
 21
424.99999513879294
  0
LINE
  8
_0-2_
  6
CONTINUOUS
 62
    7
 10
422.99998042013783
 20
428.00000000000006
 11
422.99998042013783
 21
424.99999513879294
  0
LINE
  8
_0-2_
  6
CONTINUOUS
 62
    7
 10
512.99997298331186
 20
427.98324097450921
 11
512.99997298331186
 21
424.98325501799661
  0
LINE
  8
_0-2_
  6
CONTINUOUS
 62
    7
 10
512.99997298331186
 20
424.98325501799661
 11
762.99998108532372
 21
424.98325501799661
  0
LINE
  8
_0-2_
  6
CONTINUOUS
 62
    7
 10
762.99998108532372
 20
427.98324097450921
 11
512.99997298331186
 21
427.98324097450921
  0
LINE
  8
_0-2_
  6
CONTINUOUS
 62
    7
 10
762.99998108532372
 20
427.98324097450939
 11
762.99998108532372
 21
424.98325501799661
  0
LINE
  8
_0-2_
  6
DASHED2
 62
    4
 10
714.81875852413725
 20
424.98287692410838
 11
711.31878120977069
 21
424.98287692410838
  0
LINE
  8
_0-2_
  6
DASHED2
 62
    4
 10
712.0687682465516
 20
418.98286720169398
 11
712.0687682465516
 21
423.98285639901155
  0
LINE
  8
_0-2_
  6
DASHED2
 62
    4
 10
714.81875852413725
 20
423.98285639901155
 11
711.31878120977069
 21
423.98285639901155
  0
LINE
  8
_0-2_
  6
DASHED2
 62
    4
 10
714.06877148735634
 20
418.98286720169398
 11
714.06877148735634
 21
423.98285639901155
  0
LINE
  8
_0-2_
  6
DASHED2
 62
    4
 10
714.81875845755826
 20
423.98288556836434
 11
714.81875845755826
 21
423.98288556836434
  0
LINE
  8
_0-2_
  6
DASHED2
 62
    4
 10
714.81875845755826
 20
423.98288556836434
 11
714.86217050280322
 21
423.99048173807148
  0
LINE
  8
_0-2_
  6
DASHED2
 62
    4
 10
714.86217050280322
 20
423.99048173807148
 11
714.9042634970441
 21
424.01303934892962
  0
LINE
  8
_0-2_
  6
DASHED2
 62
    4
 10
714.9042634970441
 20
424.01303934892962
 11
714.94375846595074
 21
424.04987299934749
  0
LINE
  8
_0-2_
  6
DASHED2
 62
    4
 10
714.94375846595074
 20
424.04987299934749
 11
714.9794553748784
 21
424.09986351749586
  0
LINE
  8
_0-2_
  6
DASHED2
 62
    4
 10
714.9794553748784
 20
424.09986351749586
 11
715.01026959131275
 21
424.16149196677731
  0
LINE
  8
_0-2_
  6
DASHED2
 62
    4
 10
715.01026959131275
 20
424.16149196677731
 11
715.03526484088036
 21
424.23288579794581
  0
LINE
  8
_0-2_
  6
DASHED2
 62
    4
 10
715.03526484088036
 20
424.23288579794581
 11
715.05368165557115
 21
424.31187574556844
  0
LINE
  8
_0-2_
  6
DASHED2
 62
    4
 10
715.05368165557115
 20
424.31187574556844
 11
715.06496044979019
 21
424.39606174005741
  0
LINE
  8
_0-2_
  6
DASHED2
 62
    4
 10
715.06496044979019
 20
424.39606174005741
 11
715.06875852308235
 21
424.48288583257045
  0
LINE
  8
_0-2_
  6
DASHED2
 62
    4
 10
715.06875852308235
 20
424.48288583257045
 11
715.06496047291284
 21
424.56970991699154
  0
LINE
  8
_0-2_
  6
DASHED2
 62
    4
 10
715.06496047291284
 20
424.56970991699154
 11
715.05368170111387
 21
424.65389588745074
  0
LINE
  8
_0-2_
  6
DASHED2
 62
    4
 10
715.05368170111387
 20
424.65389588745074
 11
715.03526490745935
 21
424.73288579583584
  0
LINE
  8
_0-2_
  6
DASHED2
 62
    4
 10
715.03526490745935
 20
424.73288579583584
 11
715.01026967690507
 21
424.80427957375127
  0
LINE
  8
_0-2_
  6
DASHED2
 62
    4
 10
715.01026967690507
 20
424.80427957375127
 11
714.97945547688334
 21
424.86590795738215
  0
LINE
  8
_0-2_
  6
DASHED2
 62
    4
 10
714.97945547688334
 20
424.86590795738215
 11
714.94375858126898
 21
424.91589839947727
  0
LINE
  8
_0-2_
  6
DASHED2
 62
    4
 10
714.94375858126898
 20
424.91589839947727
 11
714.9042636221717
 21
424.95273196574999
  0
LINE
  8
_0-2_
  6
DASHED2
 62
    4
 10
714.9042636221717
 20
424.95273196574999
 11
714.86217063393838
 21
424.97528948692775
  0
LINE
  8
_0-2_
  6
DASHED2
 62
    4
 10
714.86217063393838
 20
424.97528948692775
 11
714.81875899019042
 21
424.98288556414406
  0
LINE
  8
_0-2_
  6
DASHED2
 62
    4
 10
711.31878127634968
 20
424.98288556414428
 11
711.31878127634968
 21
424.98288556414428
  0
LINE
  8
_0-2_
  6
DASHED2
 62
    4
 10
711.31878127634968
 20
424.98288556414428
 11
711.27536923110472
 21
424.97528939443714
  0
LINE
  8
_0-2_
  6
DASHED2
 62
    4
 10
711.27536923110472
 20
424.97528939443714
 11
711.23327623686384
 21
424.952731783579
  0
LINE
  8
_0-2_
  6
DASHED2
 62
    4
 10
711.23327623686384
 20
424.952731783579
 11
711.19378126795721
 21
424.91589813316114
  0
LINE
  8
_0-2_
  6
DASHED2
 62
    4
 10
711.19378126795721
 20
424.91589813316114
 11
711.15808435902954
 21
424.86590761501276
  0
LINE
  8
_0-2_
  6
DASHED2
 62
    4
 10
711.15808435902954
 20
424.86590761501276
 11
711.12727014259519
 21
424.80427916573132
  0
LINE
  8
_0-2_
  6
DASHED2
 62
    4
 10
711.12727014259519
 20
424.80427916573132
 11
711.10227489302758
 21
424.73288533456281
  0
LINE
  8
_0-2_
  6
DASHED2
 62
    4
 10
711.10227489302758
 20
424.73288533456281
 11
711.08385807833679
 21
424.65389538694018
  0
LINE
  8
_0-2_
  6
DASHED2
 62
    4
 10
711.08385807833679
 20
424.65389538694018
 11
711.07257928411775
 21
424.56970939245122
  0
LINE
  8
_0-2_
  6
DASHED2
 62
    4
 10
711.07257928411775
 20
424.56970939245122
 11
711.06878121082559
 21
424.48288529993818
  0
LINE
  8
_0-2_
  6
DASHED2
 62
    4
 10
711.06878121082559
 20
424.48288529993818
 11
711.0725792609951
 21
424.39606121551708
  0
LINE
  8
_0-2_
  6
DASHED2
 62
    4
 10
711.0725792609951
 20
424.39606121551708
 11
711.08385803279407
 21
424.31187524505788
  0
LINE
  8
_0-2_
  6
DASHED2
 62
    4
 10
711.08385803279407
 20
424.31187524505788
 11
711.10227482644859
 21
424.23288533667278
  0
LINE
  8
_0-2_
  6
DASHED2
 62
    4
 10
711.10227482644859
 20
424.23288533667278
 11
711.12727005700287
 21
424.16149155875735
  0
LINE
  8
_0-2_
  6
DASHED2
 62
    4
 10
711.12727005700287
 20
424.16149155875735
 11
711.1580842570246
 21
424.09986317512647
  0
LINE
  8
_0-2_
  6
DASHED2
 62
    4
 10
711.1580842570246
 20
424.09986317512647
 11
711.19378115263896
 21
424.04987273303135
  0
LINE
  8
_0-2_
  6
DASHED2
 62
    4
 10
711.19378115263896
 20
424.04987273303135
 11
711.23327611173625
 21
424.01303916675863
  0
LINE
  8
_0-2_
  6
DASHED2
 62
    4
 10
711.23327611173625
 20
424.01303916675863
 11
711.27536909996957
 21
423.99048164558087
  0
LINE
  8
_0-2_
  6
DASHED2
 62
    4
 10
711.27536909996957
 20
423.99048164558087
 11
711.31878074371753
 21
423.98288556836457
  0
ARC
  8
_0-2_
  6
DASHED2
 62
    4
 10
713.06878877164843
 20
418.98286720169398
 40
0.9999999957802019
 50
270
 51
359.99996948242187
  0
ARC
  8
_0-2_
  6
DASHED2
 62
    4
 10
713.06878877164843
 20
418.98286720169398
 40
0.9999999957802019
 50
180
 51
270
  0
LINE
  8
_0-2_
  6
DASHED2
 62
    4
 10
285.51313268610863
 20
424.01674307764119
 11
280.36160345837072
 21
424.01674307764119
  0
LINE
  8
_0-2_
  6
DASHED2
 62
    4
 10
285.51313268610863
 20
425.01674469804351
 11
285.51313268610863
 21
424.01674307764119
  0
LINE
  8
_0-2_
  6
DASHED2
 62
    4
 10
278.92921366733788
 20
425.01674469804351
 11
285.51313268610863
 21
425.01674469804351
  0
LINE
  8
_0-2_
  6
DASHED2
 62
    4
 10
260.48687136489724
 20
424.01674307764119
 11
265.63840059263509
 21
424.01674307764119
  0
LINE
  8
_0-2_
  6
DASHED2
 62
    4
 10
260.48687136489724
 20
425.01674469804351
 11
260.48687136489724
 21
424.01674307764119
  0
LINE
  8
_0-2_
  6
DASHED2
 62
    4
 10
267.07079038366805
 20
425.01674469804351
 11
260.48687136489724
 21
425.01674469804351
  0
ARC
  8
_0-2_
  6
DASHED2
 62
    4
 10
280.36160345837072
 20
423.51675171978712
 40
0.4999999978901009
 50
90.000030517578125
 51
168.46304321289062
  0
ARC
  8
_0-2_
  6
DASHED2
 62
    4
 10
278.92921366733788
 20
424.01674307764119
 40
0.9999999957802019
 50
90.000030517578125
 51
170.40594482421878
  0
ARC
  8
_0-2_
  6
DASHED2
 62
    4
 10
265.63840059263509
 20
423.51675171978712
 40
0.4999999978901009
 50
11.536956787109377
 51
89.999969482421875
  0
ARC
  8
_0-2_
  6
DASHED2
 62
    4
 10
272.98686326288532
 20
425.01674469804351
 40
4.9999998312080853
 50
189.59407043457031
 51
270
  0
ARC
  8
_0-2_
  6
DASHED2
 62
    4
 10
267.07079038366805
 20
424.01674307764119
 40
0.9999999957802019
 50
9.59405517578125
 51
89.999969482421875
  0
ARC
  8
_0-2_
  6
DASHED2
 62
    4
 10
273.01312188342604
 20
425.01674469804351
 40
4.9999998312080853
 50
298.95504760742187
 51
350.40591430664062
  0
ARC
  8
_0-2_
  6
DASHED2
 62
    4
 10
273.01312188342604
 20
425.01674469804351
 40
7.0000001181543388
 50
309.83815002441406
 51
348.4630126953125
  0
ARC
  8
_0-2_
  6
DASHED2
 62
    4
 10
272.98686326288532
 20
425.01674469804351
 40
7.0000001181543388
 50
191.53697204589844
 51
301.06680297851562
  0
LINE
  8
_0-3_
  6
CONTINUOUS
 62
    7
 10
147.99999729932932
 20
408.49999513879294
 11
132.99999729932932
 21
408.49999513879294
  0
LINE
  8
_0-5_
  6
CONTINUOUS
 62
    7
 10
759.99995731942215
 20
275.98322152968063
 11
515.99997784451898
 21
275.98322152968063
  0
LINE
  8
_0-5_
  6
CONTINUOUS
 62
    7
 10
759.99995731942215
 20
277.98322477048544
 11
515.99997784451898
 21
277.98322477048544
  0
LINE
  8
_0-5_
  6
CONTINUOUS
 62
    7
 10
515.99997784451898
 20
275.98322152968063
 11
515.99997784451898
 21
277.98322477048544
  0
LINE
  8
_0-5_
  6
CONTINUOUS
 62
    7
 10
759.99995731942215
 20
275.98322152968063
 11
759.99995731942215
 21
277.98322477048544
  0
ARC
  8
_0-3_
  6
CONTINUOUS
 62
    7
 10
134.49999972993288
 20
423.50000216053655
 40
1.5000000675167655
 50
90.000030517578125
 51
180.00001525878906
  0
LINE
  8
_0-3_
  6
CONTINUOUS
 62
    7
 10
134.49999893098456
 20
425.00000222805306
 11
134.49999893098456
 21
423.49999513879294
  0
LINE
  8
_0-3_
  6
CONTINUOUS
 62
    7
 10
132.99999729932932
 20
423.49999513879294
 11
132.99999729932932
 21
279.49999567892701
  0
LINE
  8
_0-3_
  6
CONTINUOUS
 62
    7
 10
411.49999094150053
 20
425.00000222805306
 11
134.49999893098456
 21
425.00000222805306
  0
LINE
  8
_0-3_
  6
CONTINUOUS
 62
    7
 10
147.99999729932932
 20
423.49999513879294
 11
132.99999729932932
 21
423.49999513879294
  0
LINE
  8
_0-3_
  6
CONTINUOUS
 62
    7
 10
147.99999729932932
 20
423.49999513879294
 11
147.99999729932932
 21
280.99999567892701
  0
LINE
  8
_0-3_
  6
CONTINUOUS
 62
    7
 10
136.16987028040711
 20
405.99999513879288
 11
144.83012431825153
 21
410.99999513879288
  0
LINE
  8
_0-3_
  6
CONTINUOUS
 62
    7
 10
140.49999729932932
 20
413.49999513879288
 11
140.49999729932932
 21
403.49999513879288
  0
LINE
  8
_0-3_
  6
CONTINUOUS
 62
    7
 10
136.16987028040711
 20
410.99999513879288
 11
144.83012431825153
 21
405.99999513879288
  0
LINE
  8
_0-3_
  6
CONTINUOUS
 62
    7
 10
140.49999729932932
 20
357.24999540885995
 11
140.49999729932932
 21
347.24999540885995
  0
LINE
  8
_0-3_
  6
CONTINUOUS
 62
    7
 10
136.16987028040711
 20
354.74999540885995
 11
144.83012431825153
 21
349.74999540885995
  0
LINE
  8
_0-3_
  6
CONTINUOUS
 62
    7
 10
136.16987028040711
 20
349.74999540885995
 11
144.83012431825153
 21
354.74999540886
  0
LINE
  8
_0-3_
  6
CONTINUOUS
 62
    7
 10
136.16987028040711
 20
293.49999567892701
 11
144.83012431825153
 21
298.49999567892706
  0
LINE
  8
_0-3_
  6
CONTINUOUS
 62
    7
 10
136.16987028040711
 20
298.49999567892701
 11
144.83012431825153
 21
293.49999567892701
  0
LINE
  8
_0-3_
  6
CONTINUOUS
 62
    7
 10
140.49999729932932
 20
300.99999567892701
 11
140.49999729932932
 21
290.99999567892701
  0
LINE
  8
_0-3_
  6
CONTINUOUS
 62
    7
 10
132.99999729932932
 20
280.99999567892701
 11
147.99999729932932
 21
280.99999567892701
  0
LINE
  8
_0-3_
  6
CONTINUOUS
 62
    7
 10
134.49999972993288
 20
277.99999324832345
 11
134.49999972993288
 21
280.99999567892701
  0
ARC
  8
_0-3_
  6
CONTINUOUS
 62
    7
 10
132.99999729932932
 20
279.49999567892701
 40
1.5000000675167655
 50
270
 51
0
  0
LINE
  8
_0-3_
  6
CONTINUOUS
 62
    7
 10
132.99999729932932
 20
277.99999324832345
 11
124.49999770442997
 21
277.99999324832345
  0
LINE
  8
_0-3_
  6
CONTINUOUS
 62
    7
 10
124.49999770442997
 20
279.49999567892701
 11
132.99999729932932
 21
279.49999567892701
  0
LINE
  8
_0-3_
  6
CONTINUOUS
 62
    7
 10
124.49999770442997
 20
277.99999324832345
 11
124.49999770442997
 21
279.49999567892701
  0
LINE
  8
_0-3_
  6
CONTINUOUS
 62
    7
 10
421.50000634657596
 20
279.49999567892701
 11
134.49999736684609
 21
279.49999567892701
  0
LINE
  8
_0-3_
  6
CONTINUOUS
 62
    7
 10
134.49999972993288
 20
277.99999324832345
 11
411.49999014255212
 21
277.99999324832345
  0
LINE
  8
_0-3_
  6
CONTINUOUS
 62
    7
 10
411.49999014255212
 20
277.99999324832345
 11
411.49999014255212
 21
279.49999567892701
  0
ARC
  8
_0-3_
  6
CONTINUOUS
 62
    7
 10
413.00000202550291
 20
279.49999567892701
 40
1.5000000675167655
 50
180.00001525878906
 51
270
  0
LINE
  8
_0-3_
  6
CONTINUOUS
 62
    7
 10
413.00000202550291
 20
277.99999324832345
 11
421.50000634657596
 21
277.99999324832345
  0
LINE
  8
_0-3_
  6
CONTINUOUS
 62
    7
 10
421.50000634657596
 20
277.99999324832345
 11
421.50000634657596
 21
279.49999567892701
  0
LINE
  8
_0-3_
  6
CONTINUOUS
 62
    7
 10
413.00000202550291
 20
423.50000216053655
 11
413.00000202550291
 21
279.49999567892701
  0
LINE
  8
_0-3_
  6
CONTINUOUS
 62
    7
 10
411.50460183766734
 20
423.50000216053655
 11
413.00000202550291
 21
423.50000216053655
  0
LINE
  8
_0-3_
  6
CONTINUOUS
 62
    7
 10
411.50460183766734
 20
424.99999513879294
 11
411.50460183766734
 21
423.50000216053655
  0
LINE
  8
_0-3_
  6
CONTINUOUS
 62
    7
 10
525.99997474437419
 20
424.98325501799661
 11
534.49996056022701
 21
424.98325501799661
  0
ARC
  8
_0-3_
  6
CONTINUOUS
 62
    7
 10
525.99997514384836
 20
423.48324313504571
 40
1.5000000675167655
 50
90.000015258789063
 51
180
  0
LINE
  8
_0-3_
  6
CONTINUOUS
 62
    7
 10
522.99997028264124
 20
423.48324313504571
 11
535.49996056022701
 21
423.48324313504571
  0
LINE
  8
_0-3_
  6
CONTINUOUS
 62
    7
 10
522.99997028264124
 20
423.48324313504571
 11
522.99997028264124
 21
280.9832485363869
  0
LINE
  8
_0-3_
  6
CONTINUOUS
 62
    7
 10
534.49996056022701
 20
423.48324313504571
 11
534.49996056022701
 21
424.98325501799661
  0
LINE
  8
_0-3_
  6
CONTINUOUS
 62
    7
 10
535.49996056022701
 20
423.48324313504571
 11
535.49996056022701
 21
424.98325501799661
  0
LINE
  8
_0-3_
  6
CONTINUOUS
 62
    7
 10
535.49996056022701
 20
424.98325501799661
 11
740.49997460371412
 21
424.98325501799661
  0
LINE
  8
_0-3_
  6
CONTINUOUS
 62
    7
 10
522.99997028264124
 20
280.9832485363869
 11
525.99996332841397
 21
280.9832485363869
  0
LINE
  8
_0-3_
  6
CONTINUOUS
 62
    7
 10
524.49996326089752
 20
279.48323665343617
 11
524.49996326089752
 21
280.9832485363869
  0
LINE
  8
_0-3_
  6
CONTINUOUS
 62
    7
 10
525.99996332841397
 20
277.98322477048544
 11
525.99996332841397
 21
280.9832485363869
  0
LINE
  8
_0-3_
  6
CONTINUOUS
 62
    7
 10
749.99997892478723
 20
279.48322477048544
 11
525.99996332841397
 21
279.48322477048544
  0
LINE
  8
_0-3_
  6
CONTINUOUS
 62
    7
 10
749.99997892478723
 20
277.98322477048544
 11
525.99996332841397
 21
277.98322477048544
  0
ARC
  8
_0-3_
  6
CONTINUOUS
 62
    7
 10
524.49996326089752
 20
279.48323665343617
 40
1.5000000675167655
 50
270
 51
359.99996948242187
  0
LINE
  8
_0-3_
  6
CONTINUOUS
 62
    7
 10
524.49996326089752
 20
277.98322477048544
 11
515.99997784451898
 21
277.98322477048544
  0
LINE
  8
_0-3_
  6
CONTINUOUS
 62
    7
 10
515.99997784451898
 20
279.48323665343617
 11
524.49996326089752
 21
279.48323665343617
  0
LINE
  8
_0-3_
  6
CONTINUOUS
 62
    7
 10
515.99997784451898
 20
279.48323665343617
 11
515.99997784451898
 21
277.98322477048544
  0
LINE
  8
_0-3_
  6
CONTINUOUS
 62
    7
 10
759.99995731942215
 20
277.98322477048544
 11
751.49995299834927
 21
277.98322477048544
  0
LINE
  8
_0-3_
  6
CONTINUOUS
 62
    7
 10
759.99995731942215
 20
279.48323665343634
 11
759.99995731942215
 21
277.98322477048544
  0
LINE
  8
_0-3_
  6
CONTINUOUS
 62
    7
 10
759.99995731942215
 20
279.48323665343634
 11
751.49995299834927
 21
279.48323665343634
  0
ARC
  8
_0-3_
  6
CONTINUOUS
 62
    7
 10
751.49995299834927
 20
279.48323665343634
 40
1.5000000675167655
 50
180
 51
270
  0
LINE
  8
_0-3_
  6
CONTINUOUS
 62
    7
 10
749.99997892478723
 20
277.98322477048544
 11
749.99997892478723
 21
280.98324853638707
  0
LINE
  8
_0-3_
  6
CONTINUOUS
 62
    7
 10
751.49995299834927
 20
280.98324853638707
 11
751.49995299834927
 21
279.48323665343634
  0
LINE
  8
_0-3_
  6
CONTINUOUS
 62
    7
 10
752.9999648813
 20
280.98324853638707
 11
749.99997892478723
 21
280.98324853638707
  0
LINE
  8
_0-3_
  6
CONTINUOUS
 62
    7
 10
752.9999648813
 20
280.98324853638707
 11
752.9999648813
 21
423.48324313504588
  0
LINE
  8
_0-3_
  6
CONTINUOUS
 62
    7
 10
752.9999648813
 20
423.48324313504588
 11
740.49997460371412
 21
423.48324313504588
  0
ARC
  8
_0-3_
  6
CONTINUOUS
 62
    7
 10
749.99997892478723
 20
423.48324313504588
 40
1.5000000675167655
 50
359.99996948242187
 51
90.000015258789077
  0
LINE
  8
_0-3_
  6
CONTINUOUS
 62
    7
 10
741.49997460371412
 20
424.98325501799661
 11
749.99997852531294
 21
424.98325501799661
  0
LINE
  8
_0-3_
  6
CONTINUOUS
 62
    7
 10
741.49997460371412
 20
423.48324313504588
 11
741.49997460371412
 21
424.98325501799661
  0
LINE
  8
_0-3_
  6
CONTINUOUS
 62
    7
 10
740.49997460371412
 20
423.48324313504588
 11
740.49997460371412
 21
424.98325501799661
  0
ARC
  8
_0-3_
  6
CONTINUOUS
 62
    7
 10
411.49999014255212
 20
423.50000216053655
 40
1.5000000675167655
 50
0
 51
89.999969482421861
  0
LINE
  8
_0-3_
  6
DASHED2
 62
    4
 10
748.9999583996904
 20
376.23322801129018
 11
748.9999583996904
 21
379.73324313504571
  0
LINE
  8
_0-3_
  6
DASHED2
 62
    4
 10
743.99996920237299
 20
376.98325285746006
 11
748.9999583996904
 21
376.98325285746006
  0
LINE
  8
_0-3_
  6
DASHED2
 62
    4
 10
743.99996920237299
 20
378.9832560982648
 11
748.9999583996904
 21
378.9832560982648
  0
LINE
  8
_0-3_
  6
DASHED2
 62
    4
 10
749.99997892478723
 20
376.23322801129018
 11
749.99997892478723
 21
379.73324313504571
  0
LINE
  8
_0-3_
  6
DASHED2
 62
    4
 10
748.99998756904324
 20
376.23322781155309
 11
748.99998756904324
 21
376.23322781155309
  0
LINE
  8
_0-3_
  6
DASHED2
 62
    4
 10
748.99998756904324
 20
376.23322781155309
 11
749.00758376187309
 21
376.18981577035402
  0
LINE
  8
_0-3_
  6
DASHED2
 62
    4
 10
749.00758376187309
 20
376.18981577035402
 11
749.0301413951513
 21
376.14772278812814
  0
LINE
  8
_0-3_
  6
DASHED2
 62
    4
 10
749.0301413951513
 20
376.14772278812814
 11
749.06697506660544
 21
376.10822783884032
  0
LINE
  8
_0-3_
  6
DASHED2
 62
    4
 10
749.06697506660544
 20
376.10822783884032
 11
749.1169656037672
 21
376.0725309565392
  0
LINE
  8
_0-3_
  6
DASHED2
 62
    4
 10
749.1169656037672
 20
376.0725309565392
 11
749.17859406946127
 21
376.0417167729301
  0
LINE
  8
_0-3_
  6
DASHED2
 62
    4
 10
749.17859406946127
 20
376.0417167729301
 11
749.24998791394296
 21
376.0167215613892
  0
LINE
  8
_0-3_
  6
DASHED2
 62
    4
 10
749.24998791394296
 20
376.0167215613892
 11
749.32897787137495
 21
375.99830478877101
  0
LINE
  8
_0-3_
  6
DASHED2
 62
    4
 10
749.32897787137495
 20
375.99830478877101
 11
749.41316387187146
 21
375.98702603939216
  0
LINE
  8
_0-3_
  6
DASHED2
 62
    4
 10
749.41316387187146
 20
375.98702603939216
 11
749.49998796640739
 21
375.98322801234519
  0
LINE
  8
_0-3_
  6
DASHED2
 62
    4
 10
749.49998796640739
 20
375.98322801234519
 11
749.58681204880554
 21
375.98702610876012
  0
LINE
  8
_0-3_
  6
DASHED2
 62
    4
 10
749.58681204880554
 20
375.98702610876012
 11
749.6709980132573
 21
375.99830492539922
  0
LINE
  8
_0-3_
  6
DASHED2
 62
    4
 10
749.6709980132573
 20
375.99830492539922
 11
749.74998791183293
 21
376.01672176112629
  0
LINE
  8
_0-3_
  6
DASHED2
 62
    4
 10
749.74998791183293
 20
376.01672176112629
 11
749.82138167643518
 21
376.04171702970717
  0
LINE
  8
_0-3_
  6
DASHED2
 62
    4
 10
749.82138167643518
 20
376.04171702970717
 11
749.88301004365337
 21
376.07253126255421
  0
LINE
  8
_0-3_
  6
DASHED2
 62
    4
 10
749.88301004365337
 20
376.07253126255421
 11
749.93300046673517
 21
376.10822818479505
  0
LINE
  8
_0-3_
  6
DASHED2
 62
    4
 10
749.93300046673517
 20
376.10822818479505
 11
749.96983401197156
 21
376.14772316351105
  0
LINE
  8
_0-3_
  6
DASHED2
 62
    4
 10
749.96983401197156
 20
376.14772316351105
 11
749.99239151072925
 21
376.1898161637593
  0
LINE
  8
_0-3_
  6
DASHED2
 62
    4
 10
749.99239151072925
 20
376.1898161637593
 11
749.99998756482319
 21
376.23322781155309
  0
LINE
  8
_0-3_
  6
DASHED2
 62
    4
 10
749.99998756482307
 20
379.73324346794084
 11
749.99998756482307
 21
379.73324346794084
  0
LINE
  8
_0-3_
  6
DASHED2
 62
    4
 10
749.99998756482307
 20
379.73324346794084
 11
749.99239136043195
 21
379.77665550711691
  0
LINE
  8
_0-3_
  6
DASHED2
 62
    4
 10
749.99239136043195
 20
379.77665550711691
 11
749.96983371594376
 21
379.81874848333536
  0
LINE
  8
_0-3_
  6
DASHED2
 62
    4
 10
749.96983371594376
 20
379.81874848333536
 11
749.93300003397144
 21
379.85824342281376
  0
LINE
  8
_0-3_
  6
DASHED2
 62
    4
 10
749.93300003397144
 20
379.85824342281376
 11
749.88300948730307
 21
379.89394029180158
  0
LINE
  8
_0-3_
  6
DASHED2
 62
    4
 10
749.88300948730307
 20
379.89394029180158
 11
749.82138101340263
 21
379.92475445899805
  0
LINE
  8
_0-3_
  6
DASHED2
 62
    4
 10
749.82138101340263
 20
379.92475445899805
 11
749.74998716226423
 21
379.94974965152562
  0
LINE
  8
_0-3_
  6
DASHED2
 62
    4
 10
749.74998716226423
 20
379.94974965152562
 11
749.67099719992757
 21
379.96816640310755
  0
LINE
  8
_0-3_
  6
DASHED2
 62
    4
 10
749.67099719992757
 20
379.96816640310755
 11
749.58681119642745
 21
379.97944513006627
  0
LINE
  8
_0-3_
  6
DASHED2
 62
    4
 10
749.58681119642745
 20
379.97944513006627
 11
749.49998710088005
 21
379.98324313399058
  0
LINE
  8
_0-3_
  6
DASHED2
 62
    4
 10
749.49998710088005
 20
379.98324313399058
 11
749.41316301949337
 21
379.97944501445301
  0
LINE
  8
_0-3_
  6
DASHED2
 62
    4
 10
749.41316301949337
 20
379.97944501445301
 11
749.32897705804533
 21
379.96816617539383
  0
LINE
  8
_0-3_
  6
DASHED2
 62
    4
 10
749.32897705804533
 20
379.96816617539383
 11
749.24998716437437
 21
379.9497493186305
  0
LINE
  8
_0-3_
  6
DASHED2
 62
    4
 10
749.24998716437437
 20
379.9497493186305
 11
749.17859340642883
 21
379.92475403103629
  0
LINE
  8
_0-3_
  6
DASHED2
 62
    4
 10
749.17859340642883
 20
379.92475403103629
 11
749.11696504741701
 21
379.89393978177662
  0
LINE
  8
_0-3_
  6
DASHED2
 62
    4
 10
749.11696504741701
 20
379.89393978177662
 11
749.06697463384182
 21
379.85824284622248
  0
LINE
  8
_0-3_
  6
DASHED2
 62
    4
 10
749.06697463384182
 20
379.85824284622248
 11
749.03014109912351
 21
379.81874785769713
  0
LINE
  8
_0-3_
  6
DASHED2
 62
    4
 10
749.03014109912351
 20
379.81874785769713
 11
749.00758361157591
 21
379.77665485144149
  0
LINE
  8
_0-3_
  6
DASHED2
 62
    4
 10
749.00758361157591
 20
379.77665485144149
 11
748.99998756904324
 21
379.73324320162476
  0
ARC
  8
_0-3_
  6
DASHED2
 62
    4
 10
743.99996920237299
 20
377.98323557316803
 40
0.9999999957802019
 50
180
 51
270
  0
ARC
  8
_0-3_
  6
DASHED2
 62
    4
 10
743.99996920237299
 20
377.98323557316803
 40
0.9999999957802019
 50
90.000015258789063
 51
180
  0
LINE
  8
_0-5_
  6
CONTINUOUS
 62
    7
 10
1140
 20
789
 11
895.99999999999989
 21
789
  0
LINE
  8
_0-5_
  6
CONTINUOUS
 62
    7
 10
895.99999999999989
 20
789
 11
895.99999999999989
 21
699
  0
LINE
  8
_0-5_
  6
CENTER2
 62
    4
 10
984.42116163291564
 20
760.5
 11
994.42116171731152
 21
760.5
  0
LINE
  8
_0-5_
  6
CENTER2
 62
    4
 10
989.42116167511358
 20
765.50000004219794
 11
989.42116167511358
 21
755.49999995780206
  0
CIRCLE
  8
_0-5_
  6
CONTINUOUS
 62
    7
 10
1018.0000000000001
 20
744
 40
17.5
  0
LINE
  8
_0-5_
  6
CENTER2
 62
    4
 10
1046.5788383248864
 20
765.50000004219794
 11
1046.5788383248864
 21
755.49999995780206
  0
LINE
  8
_0-5_
  6
CENTER2
 62
    4
 10
1041.5788382826886
 20
760.5
 11
1051.5788383670845
 21
760.5
  0
LINE
  8
_0-5_
  6
CENTER2
 62
    4
 10
1012.9999999578022
 20
711
 11
1023.0000000421981
 21
711
  0
LINE
  8
_0-5_
  6
CENTER2
 62
    4
 10
1018.0000000000001
 20
716.00000004219805
 11
1018.0000000000001
 21
705.99999995780206
  0
LINE
  8
_0-5_
  6
CONTINUOUS
 62
    7
 10
1036
 20
597
 11
1060
 21
597
  0
ARC
  8
_0-5_
  6
CONTINUOUS
 62
    7
 10
1036
 20
594
 40
3
 50
90
 51
180
  0
LINE
  8
_0-5_
  6
CONTINUOUS
 62
    7
 10
1033
 20
594
 11
1033
 21
552
  0
LINE
  8
_0-5_
  6
CONTINUOUS
 62
    7
 10
1000.0000000000001
 20
597
 11
976.00000000000011
 21
597
  0
LINE
  8
_0-5_
  6
CONTINUOUS
 62
    7
 10
1003.0000000000001
 20
594
 11
1003.0000000000001
 21
552
  0
ARC
  8
_0-5_
  6
CONTINUOUS
 62
    7
 10
1000.0000000000001
 20
594
 40
3
 50
0
 51
90.000000000000014
  0
ARC
  8
_0-5_
  6
CONTINUOUS
 62
    7
 10
976.00000000000011
 20
594
 40
3
 50
90
 51
180
  0
LINE
  8
_0-5_
  6
CONTINUOUS
 62
    7
 10
973.00000000000011
 20
510
 11
973.00000000000011
 21
594
  0
LINE
  8
_0-5_
  6
CENTER2
 62
    4
 10
989.42116167511358
 20
573.50000004219805
 11
989.42116167511358
 21
563.49999995780206
  0
CIRCLE
  8
_0-5_
  6
CONTINUOUS
 62
    7
 10
989.42116167511358
 20
568.5
 40
2.5
  0
LINE
  8
_0-5_
  6
CENTER2
 62
    4
 10
984.42116163291564
 20
568.5
 11
994.42116171731152
 21
568.5
  0
ARC
  8
_0-5_
  6
CONTINUOUS
 62
    7
 10
1018.0000000000001
 20
552
 40
15
 50
180
 51
0
  0
LINE
  8
_0-5_
  6
CONTINUOUS
 62
    7
 10
1060
 20
507
 11
976.00000000000011
 21
507
  0
ARC
  8
_0-5_
  6
CONTINUOUS
 62
    7
 10
976.00000000000011
 20
510
 40
3
 50
180
 51
270
  0
LINE
  8
_0-5_
  6
CENTER2
 62
    4
 10
1012.9999999578022
 20
519
 11
1023.0000000421981
 21
519
  0
LINE
  8
_0-5_
  6
CENTER2
 62
    4
 10
1018.0000000000001
 20
524.00000004219805
 11
1018.0000000000001
 21
513.99999995780206
  0
CIRCLE
  8
_0-5_
  6
CONTINUOUS
 62
    7
 10
1018.0000000000001
 20
519
 40
2.5
  0
CIRCLE
  8
_0-5_
  6
CONTINUOUS
 62
    7
 10
1046.5788383248864
 20
568.5
 40
2.5
  0
LINE
  8
_0-5_
  6
CENTER2
 62
    4
 10
1046.5788383248864
 20
573.50000004219805
 11
1046.5788383248864
 21
563.49999995780206
  0
LINE
  8
_0-5_
  6
CENTER2
 62
    4
 10
1041.5788382826886
 20
568.5
 11
1051.5788383670845
 21
568.5
  0
LINE
  8
_0-5_
  6
CONTINUOUS
 62
    7
 10
1063
 20
594
 11
1063
 21
510
  0
ARC
  8
_0-5_
  6
CONTINUOUS
 62
    7
 10
1060
 20
594
 40
3
 50
0
 51
90.000000000000014
  0
ARC
  8
_0-5_
  6
CONTINUOUS
 62
    7
 10
1060
 20
510
 40
3
 50
270
 51
0
  0
CIRCLE
  8
_0-0_
  6
CONTINUOUS
 62
    7
 10
452.99999518682523
 20
719.30768281804421
 40
9
  0
TEXT
  8
_0-0_
 62
    7
 10
445.49999518682529
 20
711.80768281804421
 40
15
 41
1
 50
0
  1
１
  0
LINE
  8
_0-0_
  6
CONTINUOUS
 62
    7
 10
422.99998042013783
 20
426.4999975693965
 11
431.69331285673951
 21
428.82936897531908
  0
LINE
  8
_0-0_
  6
CONTINUOUS
 62
    7
 10
422.99998042013783
 20
426.4999975693965
 11
445.20575178607788
 21
439.32050564508529
  0
LINE
  8
_0-0_
  6
CONTINUOUS
 62
    7
 10
422.99998042013783
 20
426.4999975693965
 11
429.36394145081681
 21
432.86395860007542
  0
CIRCLE
  8
_0-0_
  6
CONTINUOUS
 62
    7
 10
452.99998042013783
 20
443.82050564508518
 40
9
  0
TEXT
  8
_0-0_
 62
    7
 10
445.49998042013783
 20
436.32050564508518
 40
15
 41
1
 50
0
  1
２
  0
LINE
  8
_0-0_
  6
CONTINUOUS
 62
    7
 10
413.00000202550291
 20
351.49999891973175
 11
421.69333446210453
 21
353.82937032565457
  0
LINE
  8
_0-0_
  6
CONTINUOUS
 62
    7
 10
413.00000202550291
 20
351.49999891973175
 11
435.20577339144307
 21
364.32050699542054
  0
LINE
  8
_0-0_
  6
CONTINUOUS
 62
    7
 10
413.00000202550291
 20
351.49999891973175
 11
419.36396305618189
 21
357.86395995041073
  0
CIRCLE
  8
_0-0_
  6
CONTINUOUS
 62
    7
 10
443.00000202550302
 20
368.82050699542054
 40
9
  0
TEXT
  8
_0-0_
 62
    7
 10
435.50000202550302
 20
361.32050699542054
 40
15
 41
1
 50
0
  1
３
  0
LINE
  8
_0-0_
  6
CONTINUOUS
 62
    7
 10
318.94310957325928
 20
333.46361336905863
 11
327.63644200986084
 21
335.79298477498133
  0
LINE
  8
_0-0_
  6
CONTINUOUS
 62
    7
 10
318.94310258246145
 20
333.46362547747577
 11
337.1296360619956
 21
343.96362547751102
  0
LINE
  8
_0-0_
  6
CONTINUOUS
 62
    7
 10
318.94310957325928
 20
333.46361336905863
 11
325.3070706039382
 21
339.82757439973761
  0
CIRCLE
  8
_0-0_
  6
CONTINUOUS
 62
    7
 10
344.92388367100898
 20
348.46359261176752
 40
9
  0
TEXT
  8
_0-0_
 62
    7
 10
337.42388367100898
 20
340.96359261176752
 40
15
 41
1
 50
0
  1
４
  0
LINE
  8
_0-0_
  6
CONTINUOUS
 62
    7
 10
201.24999918979876
 20
279.99999648912825
 11
198.92062778387606
 21
288.69332892572976
  0
LINE
  8
_0-0_
  6
CONTINUOUS
 62
    7
 10
201.24999918979876
 20
279.99999648912825
 11
188.42949111410999
 21
302.20576785506825
  0
LINE
  8
_0-0_
  6
CONTINUOUS
 62
    7
 10
201.24999918979876
 20
279.99999648912825
 11
194.88603815911986
 21
286.36395751980706
  0
CIRCLE
  8
_0-0_
  6
CONTINUOUS
 62
    7
 10
183.92949111410999
 20
309.99999648912825
 40
9
  0
TEXT
  8
_0-0_
 62
    7
 10
176.42949111410999
 20
302.49999648912825
 40
15
 41
1
 50
0
  1
５
  0
CIRCLE
  8
_0-0_
  6
CONTINUOUS
 62
    7
 10
160.68059840358146
 20
309.99999648912825
 40
9
  0
TEXT
  8
_0-0_
 62
    7
 10
153.18059840358146
 20
302.49999648912825
 40
15
 41
1
 50
0
  1
６
  0
LINE
  8
_0-0_
  6
CONTINUOUS
 62
    7
 10
176.49999689422873
 20
282.59999455814869
 11
174.17062548830603
 21
291.29332699475037
  0
LINE
  8
_0-0_
  6
CONTINUOUS
 62
    7
 10
176.49999689422873
 20
282.59999455814869
 11
165.18059840358146
 21
302.20576785506825
  0
LINE
  8
_0-0_
  6
CONTINUOUS
 62
    7
 10
176.49999689422873
 20
282.59999455814869
 11
170.13603586354984
 21
288.96395558882779
  0
LINE
  8
_0-0_
  6
CONTINUOUS
 62
    2
 10
895.99999999999989
 20
810
 11
904.69333243660174
 21
807.67062859407724
  0
LINE
  8
_0-5_
  6
CONTINUOUS
 62
    2
 10
895.99999999999989
 20
810
 11
1140
 21
810
  0
TEXT
  8
_0-5_
 62
    7
 10
1006
 20
811.5
 40
15
 41
1
 50
0
  1
244
  0
LINE
  8
_0-0_
  6
CONTINUOUS
 62
    2
 10
895.99999999999989
 20
810
 11
904.69333243660174
 21
812.32937140592276
  0
LINE
  8
_0-0_
  6
CONTINUOUS
 62
    2
 10
895.99999999999989
 20
813
 11
895.99999999999989
 21
792
  0
LINE
  8
_0-0_
  6
CONTINUOUS
 62
    2
 10
1140
 20
813
 11
1140
 21
792
  0
LINE
  8
_0-0_
  6
CONTINUOUS
 62
    2
 10
1140
 20
810
 11
1131.3066675633986
 21
807.67062859407724
  0
LINE
  8
_0-0_
  6
CONTINUOUS
 62
    2
 10
1140
 20
810
 11
1131.3066675633986
 21
812.32937140592276
  0
LINE
  8
_0-5_
  6
CONTINUOUS
 62
    2
 10
874.99999999999989
 20
699
 11
874.99999999999989
 21
789
  0
TEXT
  8
_0-5_
 62
    7
 10
873.49999999999989
 20
736.125
 40
15
 41
1
 50
90
  1
90
  0
LINE
  8
_0-0_
  6
CONTINUOUS
 62
    2
 10
874.99999999999989
 20
789
 11
877.32937140592276
 21
780.30666756339849
  0
LINE
  8
_0-0_
  6
CONTINUOUS
 62
    2
 10
874.99999999999989
 20
789
 11
872.67062859407736
 21
780.30666756339849
  0
LINE
  8
_0-0_
  6
CONTINUOUS
 62
    2
 10
871.99999999999989
 20
789
 11
892.99999999999989
 21
789
  0
LINE
  8
_0-0_
  6
CONTINUOUS
 62
    2
 10
871.99999999999989
 20
699
 11
892.99999999999989
 21
699
  0
LINE
  8
_0-0_
  6
CONTINUOUS
 62
    2
 10
874.99999999999989
 20
699
 11
877.32937140592276
 21
707.69333243660162
  0
LINE
  8
_0-0_
  6
CONTINUOUS
 62
    2
 10
874.99999999999989
 20
699
 11
872.67062859407736
 21
707.69333243660162
  0
LINE
  8
_0-0_
  6
CONTINUOUS
 62
    2
 10
1009.2499999999999
 20
728.84455543377237
 11
956.82905021444913
 21
638.04880702418131
  0
TEXT
  8
_0-0_
 62
    7
 10
956.55603112948177
 20
643.25003391463486
 40
15
 41
1
 50
59.999999999999794
  1
φ35穴
  0
LINE
  8
_0-0_
  6
CONTINUOUS
 62
    2
 10
1009.2499999999999
 20
728.84455543377237
 11
1006.9206285940774
 21
720.15122299717075
  0
LINE
  8
_0-0_
  6
CONTINUOUS
 62
    2
 10
1009.2499999999999
 20
728.84455543377237
 11
1002.8860389693212
 21
722.48059440309339
  0
LINE
  8
_0-0_
  6
CONTINUOUS
 62
    2
 10
1026.75
 20
759.15544456622763
 11
1009.2499999999999
 21
728.84455543377237
  0
LINE
  8
_0-0_
  6
CONTINUOUS
 62
    2
 10
1026.75
 20
759.15544456622763
 11
1033.1139610306791
 21
765.51940559690661
  0
LINE
  8
_0-0_
  6
CONTINUOUS
 62
    2
 10
1026.75
 20
759.15544456622763
 11
1032.75
 21
769.54774941164101
  0
LINE
  8
_0-0_
  6
CONTINUOUS
 62
    2
 10
1026.75
 20
759.15544456622763
 11
1029.0793714059228
 21
767.84877700282925
  0
LINE
  8
_0-0_
  6
CONTINUOUS
 62
    7
 10
1019.0000000210989
 20
709.26794915588653
 11
1025.363961051778
 21
702.90398812520766
  0
LINE
  8
_0-0_
  6
CONTINUOUS
 62
    7
 10
1019.0000000210989
 20
709.26794915588664
 11
1042.2487113059644
 21
669
  0
LINE
  8
_0-0_
  6
CONTINUOUS
 62
    7
 10
1019.0000000210989
 20
709.26794915588653
 11
1021.3293714270218
 21
700.57461671928502
  0
LINE
  8
_0-0_
  6
CONTINUOUS
 62
    7
 10
1042.2487113059644
 20
669
 11
1087.0260558643395
 21
669
  0
TEXT
  8
_0-0_
 62
    7
 10
1042.2487113059644
 20
669
 40
12
 41
1
 50
0
  1
3-M4ﾀｯﾌﾟ
  0
LINE
  8
_0-0_
  6
CONTINUOUS
 62
    2
 10
1003.0000000000001
 20
621
 11
1003.0000000000001
 21
597
  0
LINE
  8
_0-0_
  6
CONTINUOUS
 62
    2
 10
1033
 20
621
 11
1033
 21
597
  0
LINE
  8
_0-0_
  6
CONTINUOUS
 62
    2
 10
1033
 20
618
 11
1024.3066675633982
 21
615.67062859407724
  0
LINE
  8
_0-5_
  6
CONTINUOUS
 62
    2
 10
1003.0000000000001
 20
618
 11
1033
 21
618
  0
TEXT
  8
_0-5_
 62
    7
 10
1010.1250000000001
 20
619.5
 40
15
 41
1
 50
0
  1
30
  0
LINE
  8
_0-0_
  6
CONTINUOUS
 62
    2
 10
1033
 20
618
 11
1024.3066675633982
 21
620.32937140592276
  0
LINE
  8
_0-0_
  6
CONTINUOUS
 62
    2
 10
1003.0000000000001
 20
618
 11
1011.6933324366016
 21
620.32937140592276
  0
LINE
  8
_0-0_
  6
CONTINUOUS
 62
    2
 10
1003.0000000000001
 20
618
 11
1011.6933324366016
 21
615.67062859407724
  0
LINE
  8
_0-0_
  6
CONTINUOUS
 62
    2
 10
949.00000000000011
 20
597
 11
970.00000000000011
 21
597
  0
LINE
  8
_0-0_
  6
CONTINUOUS
 62
    2
 10
952.00000000000011
 20
597
 11
954.32937140592264
 21
588.30666756339838
  0
LINE
  8
_0-5_
  6
CONTINUOUS
 62
    2
 10
952.00000000000011
 20
507
 11
952.00000000000011
 21
597
  0
TEXT
  8
_0-5_
 62
    7
 10
950.50000000000011
 20
544.125
 40
15
 41
1
 50
90
  1
90
  0
LINE
  8
_0-0_
  6
CONTINUOUS
 62
    2
 10
952.00000000000011
 20
597
 11
949.67062859407724
 21
588.30666756339838
  0
LINE
  8
_0-0_
  6
CONTINUOUS
 62
    2
 10
952.00000000000011
 20
507
 11
954.32937140592264
 21
515.69333243660162
  0
LINE
  8
_0-0_
  6
CONTINUOUS
 62
    2
 10
952.00000000000011
 20
507
 11
949.67062859407724
 21
515.69333243660162
  0
LINE
  8
_0-0_
  6
CONTINUOUS
 62
    2
 10
949.00000000000011
 20
507
 11
970.00000000000011
 21
507
  0
LINE
  8
_0-0_
  6
CONTINUOUS
 62
    2
 10
973.00000000000011
 20
468
 11
973.00000000000011
 21
504
  0
LINE
  8
_0-0_
  6
CONTINUOUS
 62
    2
 10
973.00000000000011
 20
471
 11
981.69333243660162
 21
473.3293714059227
  0
LINE
  8
_0-5_
  6
CONTINUOUS
 62
    2
 10
973.00000000000011
 20
471
 11
1063
 21
471
  0
TEXT
  8
_0-5_
 62
    7
 10
1010.1250000000001
 20
472.5
 40
15
 41
1
 50
0
  1
90
  0
LINE
  8
_0-0_
  6
CONTINUOUS
 62
    2
 10
973.00000000000011
 20
471
 11
981.69333243660162
 21
468.6706285940773
  0
LINE
  8
_0-0_
  6
CONTINUOUS
 62
    2
 10
1063
 20
471
 11
1054.3066675633982
 21
468.6706285940773
  0
LINE
  8
_0-0_
  6
CONTINUOUS
 62
    2
 10
1063
 20
471
 11
1054.3066675633982
 21
473.3293714059227
  0
LINE
  8
_0-0_
  6
CONTINUOUS
 62
    2
 10
1063
 20
468
 11
1063
 21
504
  0
LINE
  8
_0-0_
  6
CONTINUOUS
 62
    7
 10
1048.7439018343475
 20
569.75
 11
1057.4372342709494
 21
572.07937140592264
  0
LINE
  8
_0-0_
  6
CONTINUOUS
 62
    7
 10
1048.7439018343475
 20
569.75
 11
1093
 21
595.3012701892219
  0
LINE
  8
_0-0_
  6
CONTINUOUS
 62
    7
 10
1048.7439018343475
 20
569.75
 11
1055.1078628650264
 21
576.11396103067909
  0
LINE
  8
_0-0_
  6
CONTINUOUS
 62
    7
 10
1093
 20
595.3012701892219
 11
1134.9310965486784
 21
595.3012701892219
  0
TEXT
  8
_0-0_
 62
    7
 10
1093
 20
595.3012701892219
 40
12
 41
1
 50
0
  1
3-φ5穴
  0
LINE
  8
_0-0_
  6
CONTINUOUS
 62
    2
 10
139.00001233608376
 20
789
 11
147.69334477268535
 21
791.32937140592276
  0
LINE
  8
_0-0_
  6
CONTINUOUS
 62
    2
 10
139.00001233608376
 20
789
 11
147.69334477268535
 21
786.67062859407724
  0
LINE
  8
_0-0_
  6
CONTINUOUS
 62
    2
 10
407.00000706977596
 20
789
 11
398.3066746331744
 21
791.32937140592276
  0
LINE
  8
_0-0_
  6
CONTINUOUS
 62
    2
 10
407.00000706977596
 20
789
 11
398.3066746331744
 21
786.67062859407724
  0
LINE
  8
_0-0_
  6
CONTINUOUS
 62
    2
 10
139.00001233608376
 20
792
 11
139.00001233608376
 21
754.99997407356193
  0
LINE
  8
_0-0_
  6
CONTINUOUS
 62
    2
 10
407.00000706977596
 20
792
 11
407.00000706977596
 21
754.99997407356193
  0
LINE
  8
_0-0_
  6
CONTINUOUS
 62
    2
 10
139.00001233608376
 20
789
 11
407.00000706977596
 21
789
  0
TEXT
  8
_0-0_
 62
    7
 10
261.0000097029299
 20
790.5
 40
15
 41
1
 50
0
  1
268
  0
LINE
  8
_0-0_
  6
CONTINUOUS
 62
    2
 10
123.00001476668737
 20
810
 11
131.69334720328897
 21
812.32937140592276
  0
LINE
  8
_0-0_
  6
CONTINUOUS
 62
    2
 10
123.00001476668737
 20
810
 11
131.69334720328897
 21
807.67062859407724
  0
LINE
  8
_0-0_
  6
CONTINUOUS
 62
    2
 10
423.00003299621414
 20
810
 11
414.30670055961247
 21
812.32937140592276
  0
LINE
  8
_0-0_
  6
CONTINUOUS
 62
    2
 10
423.00003299621414
 20
810
 11
414.30670055961247
 21
807.67062859407724
  0
LINE
  8
_0-0_
  6
CONTINUOUS
 62
    2
 10
123.00001476668737
 20
813
 11
123.00001476668737
 21
770.9999852333226
  0
LINE
  8
_0-0_
  6
CONTINUOUS
 62
    2
 10
423.00003299621414
 20
813
 11
423.00003299621414
 21
771
  0
LINE
  8
_0-0_
  6
CONTINUOUS
 62
    2
 10
123.00001476668737
 20
810
 11
423.00003299621414
 21
810
  0
TEXT
  8
_0-0_
 62
    7
 10
261.00002388145072
 20
811.5
 40
15
 41
1
 50
0
  1
300
  0
LINE
  8
_0-0_
  6
CONTINUOUS
 62
    2
 10
102
 20
533.99998001503729
 11
99.6706285940773
 21
542.69331245163892
  0
LINE
  8
_0-0_
  6
CONTINUOUS
 62
    2
 10
102
 20
533.99998001503729
 11
104.3293714059227
 21
542.69331245163892
  0
LINE
  8
_0-0_
  6
CONTINUOUS
 62
    2
 10
102
 20
751.99997407356193
 11
99.6706285940773
 21
743.30664163696019
  0
LINE
  8
_0-0_
  6
CONTINUOUS
 62
    2
 10
102
 20
751.99997407356193
 11
104.3293714059227
 21
743.30664163696019
  0
LINE
  8
_0-0_
  6
CONTINUOUS
 62
    2
 10
99
 20
533.99998001503729
 11
136.00001233608376
 21
533.99998001503729
  0
LINE
  8
_0-0_
  6
CONTINUOUS
 62
    2
 10
99
 20
751.99997407356193
 11
136.00001233608376
 21
751.99997407356193
  0
LINE
  8
_0-0_
  6
CONTINUOUS
 62
    2
 10
102
 20
533.99998001503729
 11
102
 21
751.99997407356193
  0
TEXT
  8
_0-0_
 62
    7
 10
100.5
 20
630.99997704429961
 40
15
 41
1
 50
90
  1
218
  0
LINE
  8
_0-0_
  6
CONTINUOUS
 62
    2
 10
81
 20
517.99998658365791
 11
78.6706285940773
 21
526.69331902025942
  0
LINE
  8
_0-0_
  6
CONTINUOUS
 62
    2
 10
81
 20
517.99998658365791
 11
83.3293714059227
 21
526.69331902025942
  0
LINE
  8
_0-0_
  6
CONTINUOUS
 62
    2
 10
81
 20
767.99998523332249
 11
78.6706285940773
 21
759.30665279672098
  0
LINE
  8
_0-0_
  6
CONTINUOUS
 62
    2
 10
81
 20
767.99998523332249
 11
83.3293714059227
 21
759.30665279672098
  0
LINE
  8
_0-0_
  6
CONTINUOUS
 62
    2
 10
78
 20
517.99998658365791
 11
120.00001476668737
 21
517.99998658365791
  0
LINE
  8
_0-0_
  6
CONTINUOUS
 62
    2
 10
78
 20
767.99998523332249
 11
120.00001476668737
 21
767.99998523332249
  0
LINE
  8
_0-0_
  6
CONTINUOUS
 62
    2
 10
81
 20
517.99998658365791
 11
81
 21
767.99998523332249
  0
TEXT
  8
_0-0_
 62
    7
 10
79.5
 20
630.9999859084902
 40
15
 41
1
 50
90
  1
250
  0
LINE
  8
_0-0_
  6
CONTINUOUS
 62
    2
 10
124.49999770442997
 20
240
 11
133.19333014103157
 21
242.3293714059227
  0
LINE
  8
_0-0_
  6
CONTINUOUS
 62
    2
 10
124.49999770442997
 20
240
 11
133.19333014103157
 21
237.6706285940773
  0
LINE
  8
_0-0_
  6
CONTINUOUS
 62
    2
 10
421.50000634657596
 20
240
 11
412.80667390997439
 21
242.3293714059227
  0
LINE
  8
_0-0_
  6
CONTINUOUS
 62
    2
 10
421.50000634657596
 20
240
 11
412.80667390997439
 21
237.6706285940773
  0
LINE
  8
_0-0_
  6
CONTINUOUS
 62
    2
 10
124.49999770442997
 20
237
 11
124.49999770442997
 21
274.99999324832345
  0
LINE
  8
_0-0_
  6
CONTINUOUS
 62
    2
 10
421.50000634657596
 20
237
 11
421.50000634657596
 21
274.99999324832345
  0
LINE
  8
_0-0_
  6
CONTINUOUS
 62
    2
 10
124.49999770442997
 20
240
 11
421.50000634657596
 21
240
  0
TEXT
  8
_0-0_
 62
    7
 10
261.00000202550297
 20
241.5
 40
15
 41
1
 50
0
  1
297
  0
LINE
  8
_0-0_
  6
CONTINUOUS
 62
    2
 10
515.99997784451898
 20
240
 11
524.6933102811206
 21
242.3293714059227
  0
LINE
  8
_0-0_
  6
CONTINUOUS
 62
    2
 10
515.99997784451898
 20
240
 11
524.6933102811206
 21
237.6706285940773
  0
LINE
  8
_0-0_
  6
CONTINUOUS
 62
    2
 10
759.99995731942215
 20
240
 11
751.30662488282053
 21
242.3293714059227
  0
LINE
  8
_0-0_
  6
CONTINUOUS
 62
    2
 10
759.99995731942215
 20
240
 11
751.30662488282053
 21
237.6706285940773
  0
LINE
  8
_0-0_
  6
CONTINUOUS
 62
    2
 10
515.99997784451898
 20
237
 11
515.99997784451898
 21
272.98322152968063
  0
LINE
  8
_0-0_
  6
CONTINUOUS
 62
    2
 10
759.99995731942215
 20
237
 11
759.99995731942215
 21
272.98322152968063
  0
LINE
  8
_0-0_
  6
CONTINUOUS
 62
    2
 10
515.99997784451898
 20
240
 11
759.99995731942215
 21
240
  0
TEXT
  8
_0-0_
 62
    7
 10
625.99996758197062
 20
241.5
 40
15
 41
1
 50
0
  1
244
  0
LINE
  8
_0-0_
  6
CONTINUOUS
 62
    2
 10
81
 20
277.99999324832345
 11
78.6706285940773
 21
286.69332568492507
  0
LINE
  8
_0-0_
  6
CONTINUOUS
 62
    2
 10
81
 20
277.99999324832345
 11
83.3293714059227
 21
286.69332568492507
  0
LINE
  8
_0-0_
  6
CONTINUOUS
 62
    2
 10
81
 20
428.00000000000006
 11
78.6706285940773
 21
419.30666756339838
  0
LINE
  8
_0-0_
  6
CONTINUOUS
 62
    2
 10
81
 20
428.00000000000006
 11
83.3293714059227
 21
419.30666756339838
  0
LINE
  8
_0-0_
  6
CONTINUOUS
 62
    2
 10
78
 20
277.99999324832345
 11
121.49999770442997
 21
277.99999324832345
  0
LINE
  8
_0-0_
  6
CONTINUOUS
 62
    2
 10
78
 20
428.00000000000006
 11
120
 21
428
  0
LINE
  8
_0-0_
  6
CONTINUOUS
 62
    2
 10
81
 20
277.99999324832345
 11
81
 21
428.00000000000006
  0
TEXT
  8
_0-0_
 62
    7
 10
79.5
 20
340.99999662416172
 40
15
 41
1
 50
90
  1
150
  0
LINE
  8
_0-5_
  6
CONTINUOUS
 62
    7
 10
1140
 20
699
 11
895.99999999999989
 21
699
  0
LINE
  8
_0-5_
  6
CONTINUOUS
 62
    7
 10
1140
 20
789
 11
1140
 21
699
  0
CIRCLE
  8
_0-0_
  6
CONTINUOUS
 62
    7
 10
844.99999999999989
 20
831
 40
9
  0
TEXT
  8
_0-0_
 62
    7
 10
837.49999999999989
 20
823.5
 40
15
 41
1
 50
0
  1
５
  0
LINE
  8
_0-4_
  6
DASHED2
 62
    4
 10
727.06877364789295
 20
297.98324181846885
 11
727.99998108532361
 21
297.98324181846885
  0
CIRCLE
  8
_0-5_
  6
CONTINUOUS
 62
    7
 10
989.42116167511358
 20
760.5
 40
1.6210000346192215
  0
CIRCLE
  8
_0-5_
  6
CONTINUOUS
 62
    4
 10
989.42116167511358
 20
760.5
 40
2.0000000421979784
  0
CIRCLE
  8
_0-5_
  6
CONTINUOUS
 62
    4
 10
1046.5788383248864
 20
760.5
 40
2.0000000421979784
  0
CIRCLE
  8
_0-5_
  6
CONTINUOUS
 62
    7
 10
1046.5788383248864
 20
760.5
 40
1.6210000346192215
  0
CIRCLE
  8
_0-5_
  6
CONTINUOUS
 62
    4
 10
1018.0000000000001
 20
711
 40
2.0000000421979784
  0
CIRCLE
  8
_0-5_
  6
CONTINUOUS
 62
    7
 10
1018.0000000000001
 20
711
 40
1.6210000346192215
  0
TEXT
  8
_0-f_
 62
    7
 10
966
 20
270
 40
12
 41
1
 50
0
  1
番号
  0
TEXT
  8
_0-f_
 62
    7
 10
972
 20
252
 40
12
 41
1
 50
0
  1
１
  0
TEXT
  8
_0-f_
 62
    7
 10
972
 20
234
 40
12
 41
1
 50
0
  1
２
  0
POINT
  8
_0-f_
 62
    9
 10
978
 20
270
  0
POINT
  8
_0-f_
 62
    9
 10
978
 20
252
  0
POINT
  8
_0-f_
 62
    9
 10
978
 20
234
  0
LINE
  8
_0-f_
  6
CONTINUOUS
 62
    7
 10
963
 20
285
 11
1215
 21
285
  0
LINE
  8
_0-f_
  6
CONTINUOUS
 62
    7
 10
963
 20
267
 11
1215
 21
267
  0
LINE
  8
_0-f_
  6
CONTINUOUS
 62
    7
 10
963
 20
249
 11
1215
 21
249
  0
LINE
  8
_0-f_
  6
CONTINUOUS
 62
    7
 10
963
 20
231
 11
1215
 21
231
  0
POINT
  8
_0-f_
 62
    9
 10
1038
 20
270
  0
POINT
  8
_0-f_
 62
    9
 10
1038
 20
252
  0
POINT
  8
_0-f_
 62
    9
 10
1038
 20
234
  0
POINT
  8
_0-f_
 62
    9
 10
1170
 20
234
  0
POINT
  8
_0-f_
 62
    9
 10
1170
 20
252
  0
POINT
  8
_0-f_
 62
    9
 10
1170
 20
270
  0
POINT
  8
_0-f_
 62
    9
 10
1104
 20
270
  0
POINT
  8
_0-f_
 62
    9
 10
1104
 20
252
  0
POINT
  8
_0-f_
 62
    9
 10
1104
 20
234
  0
POINT
  8
_0-f_
 62
    9
 10
978
 20
216
  0
LINE
  8
_0-f_
  6
CONTINUOUS
 62
    7
 10
963
 20
213
 11
1215
 21
213
  0
POINT
  8
_0-f_
 62
    9
 10
1038
 20
216
  0
POINT
  8
_0-f_
 62
    9
 10
1170
 20
216
  0
POINT
  8
_0-f_
 62
    9
 10
1104
 20
216
  0
TEXT
  8
_0-f_
 62
    7
 10
972
 20
216
 40
12
 41
1
 50
0
  1
３
  0
TEXT
  8
_0-f_
 62
    7
 10
1158
 20
270
 40
12
 41
1
 50
0
  1
備考
  0
TEXT
  8
_0-f_
 62
    7
 10
1092
 20
270
 40
12
 41
1
 50
0
  1
材質
  0
TEXT
  8
_0-f_
 62
    7
 10
1008
 20
270
 40
12
 41
1
 50
0
  1
部　材　名
  0
POINT
  8
_0-f_
 62
    9
 10
978
 20
198
  0
LINE
  8
_0-f_
  6
CONTINUOUS
 62
    7
 10
963
 20
195
 11
1215
 21
195
  0
POINT
  8
_0-f_
 62
    9
 10
1038
 20
198
  0
POINT
  8
_0-f_
 62
    9
 10
1170
 20
198
  0
POINT
  8
_0-f_
 62
    9
 10
1104
 20
198
  0
POINT
  8
_0-f_
 62
    9
 10
978
 20
180
  0
LINE
  8
_0-f_
  6
CONTINUOUS
 62
    7
 10
963
 20
177
 11
1215
 21
177
  0
POINT
  8
_0-f_
 62
    9
 10
1038
 20
180
  0
POINT
  8
_0-f_
 62
    9
 10
1170
 20
180
  0
POINT
  8
_0-f_
 62
    9
 10
1104
 20
180
  0
POINT
  8
_0-f_
 62
    9
 10
978
 20
162
  0
LINE
  8
_0-f_
  6
CONTINUOUS
 62
    7
 10
963
 20
159
 11
1215
 21
159
  0
POINT
  8
_0-f_
 62
    9
 10
1038
 20
162
  0
POINT
  8
_0-f_
 62
    9
 10
1170
 20
162
  0
POINT
  8
_0-f_
 62
    9
 10
1104
 20
162
  0
LINE
  8
_0-f_
  6
CONTINUOUS
 62
    7
 10
963
 20
159
 11
963
 21
285
  0
LINE
  8
_0-f_
  6
CONTINUOUS
 62
    7
 10
993
 20
159
 11
993
 21
285
  0
LINE
  8
_0-f_
  6
CONTINUOUS
 62
    7
 10
1083
 20
159
 11
1083
 21
285
  0
LINE
  8
_0-f_
  6
CONTINUOUS
 62
    7
 10
1125
 20
159
 11
1125
 21
285
  0
LINE
  8
_0-f_
  6
CONTINUOUS
 62
    7
 10
1215
 20
159
 11
1215
 21
285
  0
TEXT
  8
_0-f_
 62
    7
 10
972
 20
198
 40
12
 41
1
 50
0
  1
４
  0
TEXT
  8
_0-f_
 62
    7
 10
972
 20
180
 40
12
 41
1
 50
0
  1
５
  0
TEXT
  8
_0-f_
 62
    7
 10
972
 20
162
 40
12
 41
1
 50
0
  1
６
  0
TEXT
  8
_0-f_
 62
    7
 10
1032
 20
252
 40
12
 41
1
 50
0
  1
蓋
  0
TEXT
  8
_0-f_
 62
    7
 10
1026
 20
234
 40
12
 41
1
 50
0
  1
目地
  0
TEXT
  8
_0-f_
 62
    7
 10
1026
 20
216
 40
12
 41
1
 50
0
  1
本体
  0
TEXT
  8
_0-f_
 62
    7
 10
1032
 20
198
 40
12
 41
1
 50
0
  1
鎖
  0
TEXT
  8
_0-f_
 62
    7
 10
1014
 20
180
 40
12
 41
1
 50
0
  1
固定金具
  0
TEXT
  8
_0-f_
 62
    7
 10
1026
 20
162
 40
12
 41
1
 50
0
  1
ビス
  0
TEXT
  8
_0-f_
 62
    7
 10
1086
 20
252
 40
12
 41
1
 50
0
  1
SUS304
  0
TEXT
  8
_0-f_
 62
    7
 10
1086
 20
234
 40
12
 41
1
 50
0
  1
SUS304
  0
TEXT
  8
_0-f_
 62
    7
 10
1086
 20
216
 40
12
 41
1
 50
0
  1
SUS304
  0
TEXT
  8
_0-f_
 62
    7
 10
1086
 20
198
 40
12
 41
1
 50
0
  1
SUS304
  0
TEXT
  8
_0-f_
 62
    7
 10
1086
 20
180
 40
12
 41
1
 50
0
  1
SUS304
  0
TEXT
  8
_0-f_
 62
    7
 10
1086
 20
162
 40
12
 41
1
 50
0
  1
SUS304
  0
TEXT
  8
_0-f_
 62
    7
 10
1164
 20
252
 40
12
 41
1
 50
0
  1
t3
  0
TEXT
  8
_0-f_
 62
    7
 10
1149
 20
234
 40
12
 41
1
 50
0
  1
t3x15FB
  0
TEXT
  8
_0-f_
 62
    7
 10
1158
 20
216
 40
12
 41
1
 50
0
  1
t1.5
  0
TEXT
  8
_0-f_
 62
    7
 10
1158
 20
180
 40
12
 41
1
 50
0
  1
t1.5
  0
TEXT
  8
_0-f_
 62
    7
 10
1164
 20
162
 40
12
 41
1
 50
0
  1
M4
  0
TEXT
  8
_0-f_
 62
    7
 10
993
 20
315
 40
12
 41
1
 50
0
  1
※２）文字の色は、ブルーです。
  0
TEXT
  8
_0-f_
 62
    7
 10
993
 20
330
 40
12
 41
1
 50
0
  1
※１）表面ヘアーライン仕上げ
  0
TEXT
  8
_0-f_
 62
    7
 10
858.375
 20
58.5
 40
10.5
 41
1
 50
0
  1
2005.10.22.-2
  0
TEXT
  8
_0-f_
 62
    7
 10
957
 20
58.5
 40
13.5
 41
0.7777777777777777
 50
0
  1
ステンレス製散水栓ボックス（土間埋設型・固定金具付）
  0
TEXT
  8
_0-f_
 62
    7
 10
957
 20
31.5
 40
13.5
 41
1
 50
0
  1
ＳＢ３０
  0
TEXT
  8
_0-f_
 62
    7
 10
1194
 20
31.5
 40
10.5
 41
1
 50
0
  1
SB
  0
ENDSEC
  0
EOF
