  0
SECTION
  2
HEADER
  9
$ACADVER
  1
AC1009
  9
$INSBASE
 10
0
 20
0
 30
0
  9
$EXTMIN
 10
0
 20
0
  9
$EXTMAX
 10
1680
 20
1188
  9
$LIMMIN
 10
0
 20
0
  9
$LIMMAX
 10
1680
 20
1188
  9
$LTSCALE
 40
4
  0
ENDSEC
  0
SECTION
  2
TABLES
  0
TABLE
  2
LTYPE
 70
     9
  0
LTYPE
  2
CONTINUOUS
 70
    64
  3
実線
 72
    65
 73
     0
 40
0.0
  0
LTYPE
  2
DASHED1
 70
    64
  3
--  --  --  --  --  --  --  --  
 72
    65
 73
     2
 40
2.5
 49
1.25
 49
-1.25
  0
LTYPE
  2
DASHED2
 70
    64
  3
----    ----    ----    ----    
 72
    65
 73
     2
 40
5.0
 49
2.5
 49
-2.5
  0
LTYPE
  2
DASHED3
 70
    64
  3
------  ------  ------  ------  
 72
    65
 73
     2
 40
5.0
 49
3.75
 49
-1.25
  0
LTYPE
  2
CENTER1
 70
    64
  3
----- - ----- - ----- - ----- - 
 72
    65
 73
     4
 40
10.0
 49
6.25
 49
-1.25
 49
1.25
 49
-1.25
  0
LTYPE
  2
CENTER2
 70
    64
  3
----------  --  ----------  --  
 72
    65
 73
     4
 40
20.0
 49
12.5
 49
-2.5
 49
2.5
 49
-2.5
  0
LTYPE
  2
PHANTOM1
 70
    64
  3
--- - - --- - - --- - - --- - - 
 72
    65
 73
     6
 40
10.0
 49
3.25
 49
-1.25
 49
1.25
 49
-1.25
 49
1.25
 49
-1.25
  0
LTYPE
  2
PHANTOM2
 70
    64
  3
--------  -  -  --------  -  -  
 72
    65
 73
     6
 40
20.0
 49
10.0
 49
-2.5
 49
1.25
 49
-2.5
 49
1.25
 49
-2.5
  0
LTYPE
  2
DOT
 70
    64
  3
-   -   -   -   -   -   -   -   
 72
    65
 73
     2
 40
2.5
 49
0.625
 49
-1.875
  0
LTYPE
  2
DUMMY
 70
    64
  3
ダミー
 72
    65
 73
     0
 40
0.0
  0
LTYPE
  2
RAND1
 70
    64
  3
ランダム線1
 72
    65
 73
     4
 40
10.0
 49
1.0
 49
-2.0
 49
3.0
 49
-4.0
  0
LTYPE
  2
RAND2
 70
    64
  3
ランダム線2
 72
    65
 73
     4
 40
14.0
 49
2.0
 49
-3.0
 49
4.0
 49
-5.0
  0
LTYPE
  2
RAND3
 70
    64
  3
ランダム線3
 72
    65
 73
     4
 40
18.0
 49
3.0
 49
-4.0
 49
5.0
 49
-6.0
  0
LTYPE
  2
RAND4
 70
    64
  3
ランダム線4
 72
    65
 73
     4
 40
22.0
 49
4.0
 49
-5.0
 49
6.0
 49
-7.0
  0
LTYPE
  2
RAND5
 70
    64
  3
ランダム線5
 72
    65
 73
     4
 40
26.0
 49
5.0
 49
-6.0
 49
7.0
 49
-8.0
  0
LTYPE
  2
LONG1
 70
    64
  3
----------  --  ----------  --  
 72
    65
 73
     4
 40
40.0
 49
32.5
 49
-2.5
 49
2.5
 49
-2.5
  0
LTYPE
  2
LONG2
 70
    64
  3
--------  -  -  --------  -  -  
 72
    65
 73
     6
 40
40.0
 49
30.0
 49
-2.5
 49
1.25
 49
-2.5
 49
1.25
 49
-2.5
  0
LTYPE
  2
LONG3
 70
    64
  3
+++++++++++++++..+++++++++++++++
 72
    65
 73
     2
 40
40.0
 49
37.5
 49
-2.5
  0
LTYPE
  2
LONG4
 70
    64
  3
+++++++++++++++..+++++++++++++++
 72
    65
 73
     2
 40
80.0
 49
75.0
 49
-5.0
  0
LTYPE
  2
LONG5
 70
    64
  3
----------  --  ----------  --  
 72
    65
 73
     4
 40
60.0
 49
37.5
 49
-7.5
 49
7.5
 49
-7.5
  0
LTYPE
  2
dashed
 70
   64
  3
-------   -------------   ------
 72
   65
 73
    2
 40
7.5
 49
6
 49
-1.5
  0
LTYPE
  2
dashed_spaced
 70
   64
  3
----        --------        ----
 72
   65
 73
    2
 40
12
 49
6
 49
-6
  0
LTYPE
  2
long_dashed_dotted
 70
   64
  3
------------- --- --------------
 72
   65
 73
    4
 40
15.25
 49
12
 49
-1.5
 49
0.25
 49
-1.5
  0
LTYPE
  2
long_dashed_double-dotted
 70
   64
  3
----------- --- --- ------------
 72
   65
 73
    6
 40
17
 49
12
 49
-1.5
 49
0.25
 49
-1.5
 49
0.25
 49
-1.5
  0
LTYPE
  2
long_dashed_triplicate-dotted
 70
   64
  3
--------- --- --- --- ----------
 72
   65
 73
    8
 40
18.75
 49
12
 49
-1.5
 49
0.25
 49
-1.5
 49
0.25
 49
-1.5
 49
0.25
 49
-1.5
  0
LTYPE
  2
dotted
 70
   64
  3
   -       -       -       -    
 72
   65
 73
    2
 40
1.75
 49
0.25
 49
-1.5
  0
LTYPE
  2
chain
 70
   64
  3
-------------- -- --------------
 72
   65
 73
    4
 40
18.5
 49
12
 49
-1.5
 49
3.5
 49
-1.5
  0
LTYPE
  2
chain_double_dash
 70
   64
  3
------------ -- -- -------------
 72
   65
 73
    6
 40
23.5
 49
12
 49
-1.5
 49
3.5
 49
-1.5
 49
3.5
 49
-1.5
  0
LTYPE
  2
dashed_dotted
 70
   64
  3
-----------     -     ----------
 72
   65
 73
    4
 40
9.25
 49
6
 49
-1.5
 49
0.25
 49
-1.5
  0
LTYPE
  2
double-dashed_dotted
 70
   64
  3
------   -----------   -   -----
 72
   65
 73
    6
 40
16.75
 49
6
 49
-1.5
 49
6
 49
-1.5
 49
0.25
 49
-1.5
  0
LTYPE
  2
dashed_double-dotted
 70
   64
  3
---------    -    -    ---------
 72
   65
 73
    6
 40
11
 49
6
 49
-1.5
 49
0.25
 49
-1.5
 49
0.25
 49
-1.5
  0
LTYPE
  2
double-dashed_double-dotted
 70
   64
  3
-----   ---------   -   -   ----
 72
   65
 73
    8
 40
18.5
 49
6
 49
-1.5
 49
6
 49
-1.5
 49
0.25
 49
-1.5
 49
0.25
 49
-1.5
  0
LTYPE
  2
dashed_triplicate-dotted
 70
   64
  3
-------    -    -    -    ------
 72
   65
 73
    8
 40
12.75
 49
6
 49
-1.5
 49
0.25
 49
-1.5
 49
0.25
 49
-1.5
 49
0.25
 49
-1.5
  0
LTYPE
  2
double-dashed_triplicate-dotted
 70
   64
  3
-----  ---------  -  -  -  -----
 72
   65
 73
   10
 40
20.25
 49
6
 49
-1.5
 49
6
 49
-1.5
 49
0.25
 49
-1.5
 49
0.25
 49
-1.5
 49
0.25
 49
-1.5
  0
LTYPE
  2
undefined
 70
   64
  3
--------------------------------
 72
   65
 73
    0
 40
0
  0
LTYPE
  2
_
 70
   64
  3
                                
 72
   65
 73
    0
 40
0
  0
LTYPE
  2
__18
 70
   64
  3
                                
 72
   65
 73
    0
 40
0
  0
LTYPE
  2
__19
 70
   64
  3
                                
 72
   65
 73
    0
 40
0
  0
LTYPE
  2
__20
 70
   64
  3
                                
 72
   65
 73
    0
 40
0
  0
LTYPE
  2
__21
 70
   64
  3
                                
 72
   65
 73
    0
 40
0
  0
LTYPE
  2
__22
 70
   64
  3
                                
 72
   65
 73
    0
 40
0
  0
LTYPE
  2
__23
 70
   64
  3
                                
 72
   65
 73
    0
 40
0
  0
LTYPE
  2
__24
 70
   64
  3
                                
 72
   65
 73
    0
 40
0
  0
LTYPE
  2
__25
 70
   64
  3
                                
 72
   65
 73
    0
 40
0
  0
LTYPE
  2
__26
 70
   64
  3
                                
 72
   65
 73
    0
 40
0
  0
LTYPE
  2
__27
 70
   64
  3
                                
 72
   65
 73
    0
 40
0
  0
LTYPE
  2
__28
 70
   64
  3
                                
 72
   65
 73
    0
 40
0
  0
LTYPE
  2
__29
 70
   64
  3
                                
 72
   65
 73
    0
 40
0
  0
LTYPE
  2
__30
 70
   64
  3
                                
 72
   65
 73
    0
 40
0
  0
LTYPE
  2
__31
 70
   64
  3
                                
 72
   65
 73
    0
 40
0
  0
LTYPE
  2
__32
 70
   64
  3
                                
 72
   65
 73
    0
 40
0
  0
ENDTAB
  0
TABLE
  2
STYLE
  5
3
100
AcDbSymbolTable
 70
     1
  0
STYLE
  5
10
100
AcDbSymbolTableRecord
100
AcDbTextStyleTableRecord
  2
STANDARD
 70
     0
 40
0.0
 41
1.0
 50
0.0
 71
     0
 42
0.2
  3
txt
  4
bigfont.shx
  0
STYLE
  5
26
100
AcDbSymbolTableRecord
100
AcDbTextStyleTableRecord
  2
TATEGAKI
 70
    68
 40
0.0
 41
1.0
 50
0.0
 71
     0
 42
1.0
  3
txt
  4
bigfont.shx
  0
ENDTAB
  0
TABLE
  2
LAYER
 70
   10
  0
LAYER
  2
_0-0_
 70
   64
 62
    7
  6
CONTINUOUS
  0
LAYER
  2
_0-1_
 70
   64
 62
    7
  6
CONTINUOUS
  0
LAYER
  2
_0-2_
 70
   64
 62
    7
  6
CONTINUOUS
  0
LAYER
  2
_0-3_
 70
   64
 62
    7
  6
CONTINUOUS
  0
LAYER
  2
_0-4_
 70
   64
 62
    7
  6
CONTINUOUS
  0
LAYER
  2
_0-5_
 70
   64
 62
    7
  6
CONTINUOUS
  0
LAYER
  2
_0-7_
 70
   64
 62
    7
  6
CONTINUOUS
  0
LAYER
  2
_0-8_
 70
   64
 62
    7
  6
CONTINUOUS
  0
LAYER
  2
_0-f_
 70
   64
 62
    7
  6
CONTINUOUS
  0
LAYER
  2
ADD_LINE
 70
   64
 62
    7
  6
CONTINUOUS
  0
ENDTAB
  0
ENDSEC
  0
SECTION
  2
BLOCKS
  0
ENDSEC
  0
SECTION
  2
ENTITIES
  0
LINE
  8
_0-f_
  6
CONTINUOUS
 62
    3
 10
40
 20
40
 11
1640
 21
40
  0
LINE
  8
_0-f_
  6
CONTINUOUS
 62
    3
 10
1640
 20
40
 11
1640
 21
1148
  0
LINE
  8
_0-f_
  6
CONTINUOUS
 62
    3
 10
1640
 20
1148
 11
40
 21
1148
  0
LINE
  8
_0-f_
  6
CONTINUOUS
 62
    3
 10
40
 20
1148
 11
40
 21
40
  0
LINE
  8
_0-f_
  6
CONTINUOUS
 62
    7
 10
880
 20
76
 11
1640
 21
76
  0
LINE
  8
_0-f_
  6
CONTINUOUS
 62
    7
 10
880
 20
148
 11
1640
 21
148
  0
LINE
  8
_0-f_
  6
CONTINUOUS
 62
    7
 10
880
 20
40
 11
880
 21
184
  0
LINE
  8
_0-f_
  6
CONTINUOUS
 62
    7
 10
880
 20
184
 11
1640
 21
184
  0
LINE
  8
_0-f_
  6
CONTINUOUS
 62
    7
 10
1572
 20
40
 11
1572
 21
76
  0
LINE
  8
_0-f_
  6
CONTINUOUS
 62
    7
 10
1260
 20
76
 11
1260
 21
184
  0
LINE
  8
_0-f_
  6
CONTINUOUS
 62
    7
 10
1540
 20
112
 11
1540
 21
184
  0
LINE
  8
_0-f_
  6
CONTINUOUS
 62
    7
 10
1040
 20
76
 11
1040
 21
148
  0
LINE
  8
_0-f_
  6
CONTINUOUS
 62
    7
 10
960
 20
76
 11
960
 21
148
  0
LINE
  8
_0-f_
  6
CONTINUOUS
 62
    7
 10
1120
 20
112
 11
1640
 21
112
  0
LINE
  8
_0-f_
  6
CONTINUOUS
 62
    7
 10
1120
 20
40
 11
1120
 21
148
  0
TEXT
  8
_0-f_
 62
    7
 10
884
 20
168
 40
12
 41
0.6666666666666666
 50
0
  1
注
  0
TEXT
  8
_0-f_
 62
    7
 10
1264
 20
168
 40
12
 41
0.6666666666666666
 50
0
  1
材質　MATERIAL
  0
POINT
  8
_0-f_
 62
    9
 10
908
 20
150
  0
POINT
  8
_0-f_
 62
    9
 10
1296
 20
150
  0
POINT
  8
_0-f_
 62
    9
 10
1264
 20
168
  0
TEXT
  8
_0-f_
 62
    7
 10
1544
 20
168
 40
12
 41
0.6666666666666666
 50
0
  1
個数　QUANTITY
  0
TEXT
  8
_0-f_
 62
    7
 10
884
 20
132
 40
12
 41
0.6666666666666666
 50
0
  1
APPROVED
  0
TEXT
  8
_0-f_
 62
    7
 10
964
 20
132
 40
12
 41
0.6666666666666666
 50
0
  1
CHECKED
  0
TEXT
  8
_0-f_
 62
    7
 10
1044
 20
132
 40
12
 41
0.6666666666666666
 50
0
  1
DESIGNER
  0
TEXT
  8
_0-f_
 62
    7
 10
1124
 20
132
 40
12
 41
0.6666666666666666
 50
0
  1
図面サイズ　SIZU
  0
TEXT
  8
_0-f_
 62
    7
 10
1124
 20
96
 40
12
 41
0.6666666666666666
 50
0
  1
日付　DATE
  0
TEXT
  8
_0-f_
 62
    7
 10
1264
 20
132
 40
12
 41
0.6666666666666666
 50
0
  1
表面処理　SURFACE TREATMENT
  0
TEXT
  8
_0-f_
 62
    7
 10
1544
 20
132
 40
12
 41
0.6666666666666666
 50
0
  1
尺度　SCALE
  0
TEXT
  8
_0-f_
 62
    7
 10
1124
 20
58
 40
14
 41
0.7142857142857143
 50
0
  1
図　　番
  0
TEXT
  8
_0-f_
 62
    7
 10
1174
 20
64
 40
8
 41
1
 50
0
  1
DRAWING No
  0
TEXT
  8
_0-f_
 62
    7
 10
1296
 20
150
 40
14
 41
1
 50
0
  1
別記
  0
TEXT
  8
_0-f_
 62
    7
 10
1276
 20
114
 40
14
 41
1
 50
0
  1
別記
  0
TEXT
  8
_0-f_
 62
    7
 10
1564
 20
150
 40
14
 41
1
 50
0
  1
別記
  0
TEXT
  8
_0-f_
 62
    7
 10
1576
 20
60
 40
12
 41
0.6666666666666666
 50
0
  1
ユニット
  0
TEXT
  8
_0-f_
 62
    7
 10
1060
 20
78
 40
20
 41
1
 50
0
  1
玉置
  0
TEXT
  8
_0-f_
 62
    7
 10
956
 20
46
 40
24
 41
0.8333333333333333
 50
0
  1
株式会社アウス
  0
POINT
  8
_0-f_
 62
    9
 10
920
 20
78
  0
POINT
  8
_0-f_
 62
    9
 10
1000
 20
78
  0
POINT
  8
_0-f_
 62
    9
 10
1080
 20
78
  0
POINT
  8
_0-f_
 62
    9
 10
884
 20
132
  0
POINT
  8
_0-f_
 62
    9
 10
964
 20
132
  0
POINT
  8
_0-f_
 62
    9
 10
1044
 20
132
  0
POINT
  8
_0-f_
 62
    9
 10
1124
 20
132
  0
POINT
  8
_0-f_
 62
    9
 10
1264
 20
132
  0
POINT
  8
_0-f_
 62
    9
 10
1276
 20
114
  0
POINT
  8
_0-f_
 62
    9
 10
1124
 20
58
  0
POINT
  8
_0-f_
 62
    9
 10
956
 20
46
  0
POINT
  8
_0-f_
 62
    9
 10
1276
 20
42
  0
POINT
  8
_0-f_
 62
    9
 10
1276
 20
78
  0
POINT
  8
_0-f_
 62
    9
 10
1552
 20
114
  0
POINT
  8
_0-f_
 62
    9
 10
1544
 20
132
  0
POINT
  8
_0-f_
 62
    9
 10
1544
 20
168
  0
POINT
  8
_0-f_
 62
    9
 10
1564
 20
150
  0
POINT
  8
_0-f_
 62
    9
 10
1592
 20
42
  0
POINT
  8
_0-f_
 62
    9
 10
1576
 20
60
  0
POINT
  8
_0-f_
 62
    9
 10
1124
 20
96
  0
POINT
  8
_0-f_
 62
    9
 10
1190
 20
114
  0
POINT
  8
_0-f_
 62
    9
 10
1190
 20
78
  0
TEXT
  8
_0-f_
 62
    7
 10
1264
 20
98
 40
12
 41
0.6666666666666666
 50
0
  1
図面名　TITLE
  0
POINT
  8
_0-f_
 62
    9
 10
1264
 20
98
  0
TEXT
  8
_0-f_
 62
    7
 10
908
 20
150
 40
14
 41
1
 50
0
  1
　
  0
LINE
  8
_0-0_
  6
CONTINUOUS
 62
    7
 10
760.99998433543965
 20
630.99999513879288
 11
769.48526570967817
 21
639.48527651303152
  0
LINE
  8
_0-0_
  6
CONTINUOUS
 62
    7
 10
760.99998433543965
 20
630.99999513879288
 11
772.59109425090844
 21
634.10582368002315
  0
CIRCLE
  8
_0-0_
  6
CONTINUOUS
 62
    7
 10
804
 20
655.82606575788486
 40
12
  0
TEXT
  8
_0-0_
 62
    7
 10
794
 20
645.82606575788486
 40
20
 41
1
 50
0
  1
７
  0
LINE
  8
_0-0_
  6
CONTINUOUS
 62
    7
 10
760.99998433543965
 20
630.99999513879288
 11
793.60769515458674
 21
649.82606575788486
  0
LINE
  8
_0-1_
  6
CONTINUOUS
 62
    7
 10
764.00000810134122
 20
984
 11
163.99999999932936
 21
984
  0
LINE
  8
_0-1_
  6
CONTINUOUS
 62
    7
 10
163.99999999932936
 20
984
 11
163.99999999932936
 21
583.99999459865876
  0
LINE
  8
_0-1_
  6
CONTINUOUS
 62
    7
 10
743.99997569329366
 20
963.99996759195244
 11
183.99999459798812
 21
963.99996759195244
  0
LINE
  8
_0-1_
  6
CONTINUOUS
 62
    7
 10
183.99999459798812
 20
963.99996759195244
 11
183.99999459798812
 21
603.99998919731752
  0
LINE
  8
_0-1_
  6
CONTINUOUS
 62
    7
 10
764.00000810134122
 20
583.99999459865876
 11
764.00000810134122
 21
984
  0
LINE
  8
_0-1_
  6
CONTINUOUS
 62
    7
 10
764.00000810134122
 20
583.99999459865876
 11
163.99999999932936
 21
583.99999459865876
  0
LINE
  8
_0-1_
  6
CONTINUOUS
 62
    7
 10
743.99997569329366
 20
603.99998919731752
 11
183.99999459798812
 21
603.99998919731752
  0
LINE
  8
_0-1_
  6
CONTINUOUS
 62
    7
 10
743.99997569329366
 20
603.99998919731752
 11
743.99997569329366
 21
963.99996759195244
  0
LINE
  8
_0-1_
  6
CONTINUOUS
 62
    7
 10
764.00000810134122
 20
262.00000755785402
 11
764.00000810134122
 21
461.9999913538303
  0
LINE
  8
_0-1_
  6
CONTINUOUS
 62
    7
 10
764.00000810134122
 20
461.9999913538303
 11
163.99999999932936
 21
461.9999913538303
  0
ARC
  8
_0-1_
  6
CONTINUOUS
 62
    7
 10
745.00003402777929
 20
452.00001295919526
 40
1.5000000675167657
 50
0
 51
89.999969482421875
  0
LINE
  8
_0-1_
  6
CONTINUOUS
 62
    7
 10
745.00003402777929
 20
453.4999870327573
 11
723.00003618831579
 21
453.4999870327573
  0
ARC
  8
_0-1_
  6
CONTINUOUS
 62
    7
 10
745.00003402777929
 20
452.00001295919526
 40
1.5000000675167657
 50
270
 51
0
  0
LINE
  8
_0-1_
  6
CONTINUOUS
 62
    7
 10
723.00003618831579
 20
450.50000107624453
 11
745.00003402777929
 21
450.50000107624453
  0
ARC
  8
_0-1_
  6
CONTINUOUS
 62
    7
 10
723.00003618831579
 20
452.00001295919526
 40
1.5000000675167657
 50
180.00001525878906
 51
270
  0
ARC
  8
_0-1_
  6
CONTINUOUS
 62
    7
 10
723.00003618831579
 20
452.00001295919526
 40
1.5000000675167657
 50
89.999969482421875
 51
180.00001525878903
  0
ARC
  8
_0-1_
  6
CONTINUOUS
 62
    7
 10
545.00001242241422
 20
452.00001295919526
 40
1.5000000675167657
 50
270
 51
0
  0
ARC
  8
_0-1_
  6
CONTINUOUS
 62
    7
 10
545.00001242241422
 20
452.00001295919526
 40
1.5000000675167657
 50
0
 51
89.999969482421875
  0
LINE
  8
_0-1_
  6
CONTINUOUS
 62
    7
 10
545.00001242241422
 20
453.4999870327573
 11
523.00001458295071
 21
453.4999870327573
  0
LINE
  8
_0-1_
  6
CONTINUOUS
 62
    7
 10
523.00001458295071
 20
450.50000107624453
 11
545.00001242241422
 21
450.50000107624453
  0
ARC
  8
_0-1_
  6
CONTINUOUS
 62
    7
 10
523.00001458295071
 20
452.00001295919526
 40
1.5000000675167657
 50
180.00001525878906
 51
270
  0
ARC
  8
_0-1_
  6
CONTINUOUS
 62
    7
 10
523.00001458295071
 20
452.00001295919526
 40
1.5000000675167657
 50
89.999969482421875
 51
180.00001525878903
  0
ARC
  8
_0-1_
  6
CONTINUOUS
 62
    7
 10
475.00001242241422
 20
452.00001295919526
 40
1.5000000675167657
 50
270
 51
0
  0
ARC
  8
_0-1_
  6
CONTINUOUS
 62
    7
 10
475.00001242241422
 20
452.00001295919526
 40
1.5000000675167657
 50
0
 51
89.999969482421875
  0
LINE
  8
_0-1_
  6
CONTINUOUS
 62
    7
 10
475.00001242241422
 20
453.4999870327573
 11
453.00001458295071
 21
453.4999870327573
  0
LINE
  8
_0-1_
  6
CONTINUOUS
 62
    7
 10
453.00001458295071
 20
450.50000107624453
 11
475.00001242241422
 21
450.50000107624453
  0
ARC
  8
_0-1_
  6
CONTINUOUS
 62
    7
 10
453.00001458295071
 20
452.00001295919526
 40
1.5000000675167657
 50
180.00001525878906
 51
270
  0
ARC
  8
_0-1_
  6
CONTINUOUS
 62
    7
 10
453.00001458295071
 20
452.00001295919526
 40
1.5000000675167657
 50
89.999969482421875
 51
180.00001525878903
  0
ARC
  8
_0-1_
  6
CONTINUOUS
 62
    7
 10
405.00001242241422
 20
452.00001295919526
 40
1.5000000675167657
 50
270
 51
0
  0
ARC
  8
_0-1_
  6
CONTINUOUS
 62
    7
 10
405.00001242241422
 20
452.00001295919526
 40
1.5000000675167657
 50
0
 51
89.999969482421875
  0
LINE
  8
_0-1_
  6
CONTINUOUS
 62
    7
 10
405.00001242241422
 20
453.4999870327573
 11
383.00001458295071
 21
453.4999870327573
  0
LINE
  8
_0-1_
  6
CONTINUOUS
 62
    7
 10
383.00001458295071
 20
450.50000107624453
 11
405.00001242241422
 21
450.50000107624453
  0
ARC
  8
_0-1_
  6
CONTINUOUS
 62
    7
 10
383.00001458295071
 20
452.00001295919526
 40
1.5000000675167657
 50
89.999969482421875
 51
180.00001525878903
  0
ARC
  8
_0-1_
  6
CONTINUOUS
 62
    7
 10
383.00001458295071
 20
452.00001295919526
 40
1.5000000675167657
 50
180.00001525878906
 51
270
  0
LINE
  8
_0-1_
  6
CONTINUOUS
 62
    7
 10
182.99999297758575
 20
450.50000107624453
 11
205.0000097217436
 21
450.50000107624453
  0
ARC
  8
_0-1_
  6
CONTINUOUS
 62
    7
 10
205.0000097217436
 20
452.00001295919526
 40
1.5000000675167657
 50
270
 51
0
  0
ARC
  8
_0-1_
  6
CONTINUOUS
 62
    7
 10
205.0000097217436
 20
452.00001295919526
 40
1.5000000675167657
 50
0
 51
89.999969482421875
  0
LINE
  8
_0-1_
  6
CONTINUOUS
 62
    7
 10
205.0000097217436
 20
453.4999870327573
 11
182.99999297758575
 21
453.4999870327573
  0
ARC
  8
_0-1_
  6
CONTINUOUS
 62
    7
 10
182.99999297758575
 20
452.00001295919526
 40
1.5000000675167657
 50
89.999969482421875
 51
180.00001525878903
  0
ARC
  8
_0-1_
  6
CONTINUOUS
 62
    7
 10
182.99999297758575
 20
452.00001295919526
 40
1.5000000675167657
 50
180.00001525878906
 51
270
  0
LINE
  8
_0-1_
  6
CONTINUOUS
 62
    7
 10
163.99999999932936
 20
461.9999913538303
 11
163.99999999932936
 21
262.00000755785402
  0
LINE
  8
_0-1_
  6
CONTINUOUS
 62
    7
 10
764.00000810134122
 20
262.00000755785402
 11
163.99999999932936
 21
262.00000755785402
  0
LINE
  8
_0-2_
  6
CONTINUOUS
 62
    7
 10
742.99999297758563
 20
604.99997191302543
 11
742.99999297758563
 21
962.99998487624441
  0
LINE
  8
_0-2_
  6
CONTINUOUS
 62
    7
 10
742.99999297758563
 20
604.99997191302543
 11
184.99999621839049
 21
604.99997191302543
  0
LINE
  8
_0-2_
  6
CONTINUOUS
 62
    7
 10
742.99999297758563
 20
962.99998487624441
 11
184.99999621839049
 21
962.99998487624441
  0
LINE
  8
_0-2_
  6
CONTINUOUS
 62
    7
 10
184.99999621839049
 20
962.99998487624441
 11
184.99999621839049
 21
604.99997191302543
  0
LINE
  8
_0-3_
  6
CONTINUOUS
 62
    7
 10
528.99998649597615
 20
949.99998271570792
 11
528.99998649597615
 21
865.00001512375547
  0
LINE
  8
_0-3_
  6
CONTINUOUS
 62
    7
 10
399.00000269999998
 20
865.00001512375547
 11
528.99998649597615
 21
865.00001512375547
  0
ARC
  8
_0-3_
  6
CONTINUOUS
 62
    7
 10
504.49999405785388
 20
889.99996111034295
 40
4.9999998312080853
 50
270
 51
0
  0
LINE
  8
_0-3_
  6
CONTINUOUS
 62
    7
 10
423.49999513812219
 20
884.99997191302543
 11
504.49999405785388
 21
884.99997191302543
  0
LINE
  8
_0-3_
  6
CONTINUOUS
 62
    7
 10
509.4999832551714
 20
915.99996543141594
 11
509.4999832551714
 21
889.99996111034295
  0
ARC
  8
_0-3_
  6
CONTINUOUS
 62
    7
 10
504.49999405785388
 20
915.99996543141594
 40
4.9999998312080853
 50
0
 51
89.999969482421875
  0
LINE
  8
_0-3_
  6
CONTINUOUS
 62
    7
 10
423.49999513812219
 20
920.99995462873335
 11
504.49999405785388
 21
920.99995462873335
  0
ARC
  8
_0-3_
  6
CONTINUOUS
 62
    7
 10
423.49999513812219
 20
915.99996543141594
 40
4.9999998312080853
 50
89.999969482421875
 51
180.00001525878903
  0
LINE
  8
_0-3_
  6
CONTINUOUS
 62
    7
 10
418.50000594080473
 20
915.99996543141594
 11
418.50000594080473
 21
889.99996111034295
  0
ARC
  8
_0-3_
  6
CONTINUOUS
 62
    7
 10
423.49999513812219
 20
889.99996111034295
 40
4.9999998312080853
 50
180.00001525878906
 51
270
  0
LINE
  8
_0-3_
  6
CONTINUOUS
 62
    7
 10
399.00000269999998
 20
949.99998271570792
 11
399.00000269999998
 21
865.00001512375547
  0
LINE
  8
_0-3_
  6
CONTINUOUS
 62
    7
 10
528.99998649597615
 20
949.99998271570792
 11
399.00000269999998
 21
949.99998271570792
  0
LINE
  8
_0-3_
  6
CONTINUOUS
 62
    7
 10
886.00004105019354
 20
949.99998271570792
 11
886.00004105019354
 21
865.00001512375547
  0
LINE
  8
_0-3_
  6
CONTINUOUS
 62
    7
 10
886.00004105019354
 20
949.99998271570792
 11
884
 21
948.00001728429208
  0
LINE
  8
_0-3_
  6
CONTINUOUS
 62
    7
 10
884
 20
866.99998055517142
 11
884
 21
948.00001728429208
  0
LINE
  8
_0-3_
  6
CONTINUOUS
 62
    7
 10
884
 20
866.99998055517142
 11
886.00004105019354
 21
865.00001512375547
  0
LINE
  8
_0-3_
  6
CONTINUOUS
 62
    7
 10
399.00000269999998
 20
461.9999913538303
 11
528.99998649597615
 21
461.9999913538303
  0
LINE
  8
_0-3_
  6
CONTINUOUS
 62
    7
 10
528.99998649597615
 20
461.9999913538303
 11
526.9999832551714
 21
463.99999459463504
  0
LINE
  8
_0-3_
  6
CONTINUOUS
 62
    7
 10
401.00000594080473
 20
463.99999459463504
 11
526.9999832551714
 21
463.99999459463504
  0
LINE
  8
_0-3_
  6
CONTINUOUS
 62
    7
 10
401.00000594080473
 20
463.99999459463504
 11
399.00000269999998
 21
461.9999913538303
  0
LINE
  8
_0-7_
  6
DASHED2
 62
    4
 10
760.99998433543965
 20
634
 11
760.99998433543965
 21
627.99999027758577
  0
LINE
  8
_0-7_
  6
DASHED2
 62
    4
 10
167.00000486053648
 20
634
 11
167.00000486053648
 21
627.99999027758577
  0
LINE
  8
_0-8_
  6
CONTINUOUS
 62
    7
 10
519.49999105710879
 20
942.50001992494776
 11
518.50000834140087
 21
942.50001992494776
  0
LINE
  8
_0-8_
  6
CONTINUOUS
 62
    7
 10
516.50004290998493
 20
940.50001668414302
 11
516.50004290998493
 21
939.49999615904619
  0
LINE
  8
_0-8_
  6
CONTINUOUS
 62
    7
 10
518.50000834140087
 20
937.49999291824145
 11
519.49999105710879
 21
937.49999291824145
  0
LINE
  8
_0-8_
  6
CONTINUOUS
 62
    7
 10
521.50003210730245
 20
939.49999615904619
 11
521.50003210730245
 21
940.50001668414302
  0
LINE
  8
_0-8_
  6
CONTINUOUS
 62
    7
 10
519.49999105710879
 20
941.49999939985105
 11
519.49999105710879
 21
942.50001992494776
  0
LINE
  8
_0-8_
  6
CONTINUOUS
 62
    7
 10
520.49997377281682
 20
940.50001668414302
 11
521.50003210730245
 21
940.50001668414302
  0
LINE
  8
_0-8_
  6
CONTINUOUS
 62
    7
 10
520.49997377281682
 20
939.49999615904619
 11
521.50003210730245
 21
939.49999615904619
  0
LINE
  8
_0-8_
  6
CONTINUOUS
 62
    7
 10
519.49999105710879
 20
938.50001344333828
 11
519.49999105710879
 21
937.49999291824145
  0
LINE
  8
_0-8_
  6
CONTINUOUS
 62
    7
 10
518.50000834140087
 20
938.50001344333828
 11
518.50000834140087
 21
937.49999291824145
  0
LINE
  8
_0-8_
  6
CONTINUOUS
 62
    7
 10
517.50002562569296
 20
939.49999615904619
 11
516.50004290998493
 21
939.49999615904619
  0
LINE
  8
_0-8_
  6
CONTINUOUS
 62
    7
 10
517.50002562569296
 20
940.50001668414302
 11
516.50004290998493
 21
940.50001668414302
  0
LINE
  8
_0-8_
  6
CONTINUOUS
 62
    7
 10
518.50000834140087
 20
941.49999939985105
 11
518.50000834140087
 21
942.50001992494776
  0
CIRCLE
  8
_0-8_
  6
CONTINUOUS
 62
    7
 10
518.99999969925489
 20
939.99998751690021
 40
3.9999999831208082
  0
ARC
  8
_0-8_
  6
CONTINUOUS
 62
    7
 10
520.49997377281682
 20
941.49999939985105
 40
0.999999995780202
 50
180.00001525878906
 51
270
  0
ARC
  8
_0-8_
  6
CONTINUOUS
 62
    7
 10
520.49997377281682
 20
938.50001344333828
 40
0.999999995780202
 50
89.999969482421875
 51
180.00001525878903
  0
ARC
  8
_0-8_
  6
CONTINUOUS
 62
    7
 10
517.50002562569296
 20
938.50001344333828
 40
0.999999995780202
 50
0
 51
89.999969482421875
  0
ARC
  8
_0-8_
  6
CONTINUOUS
 62
    7
 10
517.50002562569296
 20
941.49999939985105
 40
0.999999995780202
 50
270
 51
0
  0
CIRCLE
  8
_0-8_
  6
CONTINUOUS
 62
    7
 10
518.99999969925489
 20
939.99998751690021
 40
3.9999999831208082
  0
LINE
  8
_0-8_
  6
CONTINUOUS
 62
    7
 10
519.49999105710879
 20
877.50000912226528
 11
518.50000834140087
 21
877.50000912226528
  0
LINE
  8
_0-8_
  6
CONTINUOUS
 62
    7
 10
516.50004290998493
 20
875.50000588146054
 11
516.50004290998493
 21
874.49998535636371
  0
LINE
  8
_0-8_
  6
CONTINUOUS
 62
    7
 10
518.50000834140087
 20
872.49998211555896
 11
519.49999105710879
 21
872.49998211555896
  0
LINE
  8
_0-8_
  6
CONTINUOUS
 62
    7
 10
521.50003210730245
 20
874.49998535636371
 11
521.50003210730245
 21
875.50000588146054
  0
LINE
  8
_0-8_
  6
CONTINUOUS
 62
    7
 10
519.49999105710879
 20
876.49998859716857
 11
519.49999105710879
 21
877.50000912226528
  0
LINE
  8
_0-8_
  6
CONTINUOUS
 62
    7
 10
520.49997377281682
 20
875.50000588146054
 11
521.50003210730245
 21
875.50000588146054
  0
LINE
  8
_0-8_
  6
CONTINUOUS
 62
    7
 10
520.49997377281682
 20
874.49998535636371
 11
521.50003210730245
 21
874.49998535636371
  0
LINE
  8
_0-8_
  6
CONTINUOUS
 62
    7
 10
519.49999105710879
 20
873.50000264065579
 11
519.49999105710879
 21
872.49998211555896
  0
LINE
  8
_0-8_
  6
CONTINUOUS
 62
    7
 10
518.50000834140087
 20
873.50000264065579
 11
518.50000834140087
 21
872.49998211555896
  0
LINE
  8
_0-8_
  6
CONTINUOUS
 62
    7
 10
517.50002562569296
 20
874.49998535636371
 11
516.50004290998493
 21
874.49998535636371
  0
LINE
  8
_0-8_
  6
CONTINUOUS
 62
    7
 10
517.50002562569296
 20
875.50000588146054
 11
516.50004290998493
 21
875.50000588146054
  0
LINE
  8
_0-8_
  6
CONTINUOUS
 62
    7
 10
518.50000834140087
 20
876.49998859716857
 11
518.50000834140087
 21
877.50000912226528
  0
CIRCLE
  8
_0-8_
  6
CONTINUOUS
 62
    7
 10
518.99999969925489
 20
874.99997671421772
 40
3.9999999831208082
  0
ARC
  8
_0-8_
  6
CONTINUOUS
 62
    7
 10
520.49997377281682
 20
876.49998859716857
 40
0.999999995780202
 50
180.00001525878906
 51
270
  0
ARC
  8
_0-8_
  6
CONTINUOUS
 62
    7
 10
520.49997377281682
 20
873.50000264065579
 40
0.999999995780202
 50
89.999969482421875
 51
180.00001525878903
  0
ARC
  8
_0-8_
  6
CONTINUOUS
 62
    7
 10
517.50002562569296
 20
873.50000264065579
 40
0.999999995780202
 50
0
 51
89.999969482421875
  0
ARC
  8
_0-8_
  6
CONTINUOUS
 62
    7
 10
517.50002562569296
 20
876.49998859716857
 40
0.999999995780202
 50
270
 51
0
  0
CIRCLE
  8
_0-8_
  6
CONTINUOUS
 62
    7
 10
518.99999969925489
 20
874.99997671421772
 40
3.9999999831208082
  0
LINE
  8
_0-8_
  6
CONTINUOUS
 62
    7
 10
409.50000185979127
 20
877.50000912226528
 11
408.50001914408335
 21
877.50000912226528
  0
LINE
  8
_0-8_
  6
CONTINUOUS
 62
    7
 10
406.50005371266741
 20
875.50000588146054
 11
406.50005371266741
 21
874.49998535636371
  0
LINE
  8
_0-8_
  6
CONTINUOUS
 62
    7
 10
408.50001914408335
 20
872.49998211555896
 11
409.50000185979127
 21
872.49998211555896
  0
LINE
  8
_0-8_
  6
CONTINUOUS
 62
    7
 10
411.50004290998493
 20
874.49998535636371
 11
411.50004290998493
 21
875.50000588146054
  0
LINE
  8
_0-8_
  6
CONTINUOUS
 62
    7
 10
409.50000185979127
 20
876.49998859716857
 11
409.50000185979127
 21
877.50000912226528
  0
LINE
  8
_0-8_
  6
CONTINUOUS
 62
    7
 10
410.4999845754993
 20
875.50000588146054
 11
411.50004290998493
 21
875.50000588146054
  0
LINE
  8
_0-8_
  6
CONTINUOUS
 62
    7
 10
410.4999845754993
 20
874.49998535636371
 11
411.50004290998493
 21
874.49998535636371
  0
LINE
  8
_0-8_
  6
CONTINUOUS
 62
    7
 10
409.50000185979127
 20
873.50000264065579
 11
409.50000185979127
 21
872.49998211555896
  0
LINE
  8
_0-8_
  6
CONTINUOUS
 62
    7
 10
408.50001914408335
 20
873.50000264065579
 11
408.50001914408335
 21
872.49998211555896
  0
LINE
  8
_0-8_
  6
CONTINUOUS
 62
    7
 10
407.50003642837544
 20
874.49998535636371
 11
406.50005371266741
 21
874.49998535636371
  0
LINE
  8
_0-8_
  6
CONTINUOUS
 62
    7
 10
407.50003642837544
 20
875.50000588146054
 11
406.50005371266741
 21
875.50000588146054
  0
LINE
  8
_0-8_
  6
CONTINUOUS
 62
    7
 10
408.50001914408335
 20
876.49998859716857
 11
408.50001914408335
 21
877.50000912226528
  0
CIRCLE
  8
_0-8_
  6
CONTINUOUS
 62
    7
 10
409.00001050193737
 20
874.99997671421772
 40
3.9999999831208082
  0
ARC
  8
_0-8_
  6
CONTINUOUS
 62
    7
 10
410.4999845754993
 20
876.49998859716857
 40
0.999999995780202
 50
180.00001525878906
 51
270
  0
ARC
  8
_0-8_
  6
CONTINUOUS
 62
    7
 10
410.4999845754993
 20
873.50000264065579
 40
0.999999995780202
 50
89.999969482421875
 51
180.00001525878903
  0
ARC
  8
_0-8_
  6
CONTINUOUS
 62
    7
 10
407.50003642837544
 20
873.50000264065579
 40
0.999999995780202
 50
0
 51
89.999969482421875
  0
ARC
  8
_0-8_
  6
CONTINUOUS
 62
    7
 10
407.50003642837544
 20
876.49998859716857
 40
0.999999995780202
 50
270
 51
0
  0
CIRCLE
  8
_0-8_
  6
CONTINUOUS
 62
    7
 10
409.00001050193737
 20
874.99997671421772
 40
3.9999999831208082
  0
LINE
  8
_0-8_
  6
CONTINUOUS
 62
    7
 10
409.50000185979127
 20
942.50001992494776
 11
408.50001914408335
 21
942.50001992494776
  0
LINE
  8
_0-8_
  6
CONTINUOUS
 62
    7
 10
406.50005371266741
 20
940.50001668414302
 11
406.50005371266741
 21
939.49999615904619
  0
LINE
  8
_0-8_
  6
CONTINUOUS
 62
    7
 10
408.50001914408335
 20
937.49999291824145
 11
409.50000185979127
 21
937.49999291824145
  0
LINE
  8
_0-8_
  6
CONTINUOUS
 62
    7
 10
411.50004290998493
 20
939.49999615904619
 11
411.50004290998493
 21
940.50001668414302
  0
LINE
  8
_0-8_
  6
CONTINUOUS
 62
    7
 10
409.50000185979127
 20
941.49999939985105
 11
409.50000185979127
 21
942.50001992494776
  0
LINE
  8
_0-8_
  6
CONTINUOUS
 62
    7
 10
410.4999845754993
 20
940.50001668414302
 11
411.50004290998493
 21
940.50001668414302
  0
LINE
  8
_0-8_
  6
CONTINUOUS
 62
    7
 10
410.4999845754993
 20
939.49999615904619
 11
411.50004290998493
 21
939.49999615904619
  0
LINE
  8
_0-8_
  6
CONTINUOUS
 62
    7
 10
409.50000185979127
 20
938.50001344333828
 11
409.50000185979127
 21
937.49999291824145
  0
LINE
  8
_0-8_
  6
CONTINUOUS
 62
    7
 10
408.50001914408335
 20
938.50001344333828
 11
408.50001914408335
 21
937.49999291824145
  0
LINE
  8
_0-8_
  6
CONTINUOUS
 62
    7
 10
407.50003642837544
 20
939.49999615904619
 11
406.50005371266741
 21
939.49999615904619
  0
LINE
  8
_0-8_
  6
CONTINUOUS
 62
    7
 10
407.50003642837544
 20
940.50001668414302
 11
406.50005371266741
 21
940.50001668414302
  0
LINE
  8
_0-8_
  6
CONTINUOUS
 62
    7
 10
408.50001914408335
 20
941.49999939985105
 11
408.50001914408335
 21
942.50001992494776
  0
CIRCLE
  8
_0-8_
  6
CONTINUOUS
 62
    7
 10
409.00001050193737
 20
939.99998751690021
 40
3.9999999831208082
  0
ARC
  8
_0-8_
  6
CONTINUOUS
 62
    7
 10
410.4999845754993
 20
941.49999939985105
 40
0.999999995780202
 50
180.00001525878906
 51
270
  0
ARC
  8
_0-8_
  6
CONTINUOUS
 62
    7
 10
410.4999845754993
 20
938.50001344333828
 40
0.999999995780202
 50
89.999969482421875
 51
180.00001525878903
  0
ARC
  8
_0-8_
  6
CONTINUOUS
 62
    7
 10
407.50003642837544
 20
938.50001344333828
 40
0.999999995780202
 50
0
 51
89.999969482421875
  0
ARC
  8
_0-8_
  6
CONTINUOUS
 62
    7
 10
407.50003642837544
 20
941.49999939985105
 40
0.999999995780202
 50
270
 51
0
  0
CIRCLE
  8
_0-8_
  6
CONTINUOUS
 62
    7
 10
409.00001050193737
 20
939.99998751690021
 40
3.9999999831208082
  0
LINE
  8
_0-1_
  6
CONTINUOUS
 62
    7
 10
886.00004105019354
 20
984
 11
1085.999987036781
 21
984
  0
LINE
  8
_0-1_
  6
CONTINUOUS
 62
    7
 10
886.00004105019354
 20
583.99999459865876
 11
886.00004105019354
 21
984
  0
LINE
  8
_0-1_
  6
CONTINUOUS
 62
    7
 10
1085.999987036781
 20
583.99999459865876
 11
886.00004105019354
 21
583.99999459865876
  0
LINE
  8
_0-1_
  6
CONTINUOUS
 62
    7
 10
1085.999987036781
 20
984
 11
1085.999987036781
 21
583.99999459865876
  0
LINE
  8
_0-4_
  6
DASHED2
 62
    4
 10
498.49999999932936
 20
952
 11
429.49999999932942
 21
952
  0
ARC
  8
_0-4_
  6
DASHED2
 62
    4
 10
429.49999999932942
 20
951.5
 40
0.5
 50
90
 51
180
  0
LINE
  8
_0-4_
  6
DASHED2
 62
    4
 10
428.99999999932936
 20
951.5
 11
428.99999999932936
 21
948.5
  0
ARC
  8
_0-4_
  6
DASHED2
 62
    4
 10
429.49999999932942
 20
948.5
 40
0.5
 50
180
 51
270
  0
LINE
  8
_0-4_
  6
DASHED2
 62
    4
 10
438.99999999932942
 20
948
 11
429.49999999932942
 21
948
  0
LINE
  8
_0-4_
  6
DASHED2
 62
    4
 10
438.99999999932942
 20
948
 11
438.99999999932942
 21
935
  0
LINE
  8
_0-4_
  6
DASHED2
 62
    4
 10
456.99999999932942
 20
935
 11
438.99999999932942
 21
935
  0
LINE
  8
_0-4_
  6
DASHED2
 62
    4
 10
456.99999999932942
 20
948
 11
456.99999999932942
 21
935
  0
LINE
  8
_0-4_
  6
DASHED2
 62
    4
 10
470.99999999932936
 20
948
 11
456.99999999932942
 21
948
  0
LINE
  8
_0-4_
  6
DASHED2
 62
    4
 10
470.99999999932936
 20
935
 11
470.99999999932936
 21
948
  0
LINE
  8
_0-4_
  6
DASHED2
 62
    4
 10
488.99999999932936
 20
935
 11
470.99999999932936
 21
935
  0
LINE
  8
_0-4_
  6
DASHED2
 62
    4
 10
488.99999999932936
 20
935
 11
488.99999999932936
 21
948
  0
LINE
  8
_0-4_
  6
DASHED2
 62
    4
 10
498.49999999932936
 20
948
 11
488.99999999932936
 21
948
  0
ARC
  8
_0-4_
  6
DASHED2
 62
    4
 10
498.49999999932936
 20
948.5
 40
0.5
 50
270
 51
0
  0
LINE
  8
_0-4_
  6
DASHED2
 62
    4
 10
498.99999999932936
 20
948.5
 11
498.99999999932936
 21
951.5
  0
ARC
  8
_0-4_
  6
DASHED2
 62
    4
 10
498.49999999932936
 20
951.5
 40
0.5
 50
0
 51
90
  0
ARC
  8
_0-4_
  6
DASHED2
 62
    4
 10
455.99999999932942
 20
941.5
 40
3.5
 50
286.60154999999997
 51
328.99728086612595
  0
ARC
  8
_0-4_
  6
DASHED2
 62
    4
 10
455.99999999932942
 20
941.5
 40
3.5
 50
31.002719133874031
 51
73.398450000000011
  0
ARC
  8
_0-4_
  6
DASHED2
 62
    4
 10
471.99999999932936
 20
941.5
 40
3.5
 50
106.60155
 51
148.99728086612598
  0
ARC
  8
_0-4_
  6
DASHED2
 62
    4
 10
471.99999999932936
 20
941.5
 40
3.5
 50
211.00271913387405
 51
253.39845
  0
LINE
  8
_0-4_
  6
DASHED2
 62
    4
 10
456.99999999932942
 20
936.5
 11
470.99999999932936
 21
936.5
  0
LINE
  8
_0-4_
  6
DASHED2
 62
    4
 10
468.99999999932936
 20
946.5
 11
468.99999999932936
 21
936.5
  0
LINE
  8
_0-4_
  6
DASHED2
 62
    4
 10
456.99999999932942
 20
946.5
 11
470.99999999932936
 21
946.5
  0
LINE
  8
_0-4_
  6
DASHED2
 62
    4
 10
458.99999999932942
 20
946.5
 11
458.99999999932942
 21
936.5
  0
CIRCLE
  8
_0-4_
  6
DASHED2
 62
    4
 10
478.99999999932936
 20
941.5
 40
4
  0
CIRCLE
  8
_0-4_
  6
DASHED2
 62
    4
 10
448.99999999932942
 20
941.5
 40
4
  0
LINE
  8
_0-4_
  6
DASHED2
 62
    4
 10
456.99999999932942
 20
946.5
 11
442.99999999932942
 21
946.5
  0
LINE
  8
_0-4_
  6
DASHED2
 62
    4
 10
442.99999999932942
 20
936.5
 11
442.99999999932942
 21
946.5
  0
LINE
  8
_0-4_
  6
DASHED2
 62
    4
 10
456.99999999932942
 20
936.5
 11
442.99999999932942
 21
936.5
  0
LINE
  8
_0-4_
  6
DASHED2
 62
    4
 10
470.99999999932936
 20
936.5
 11
484.99999999932936
 21
936.5
  0
LINE
  8
_0-4_
  6
DASHED2
 62
    4
 10
484.99999999932936
 20
936.5
 11
484.99999999932936
 21
946.5
  0
LINE
  8
_0-4_
  6
DASHED2
 62
    4
 10
470.99999999932936
 20
946.5
 11
484.99999999932936
 21
946.5
  0
CIRCLE
  8
_0-4_
  6
DASHED2
 62
    4
 10
478.99999999932936
 20
941.5
 40
2
  0
CIRCLE
  8
_0-4_
  6
DASHED2
 62
    4
 10
448.99999999932942
 20
941.5
 40
2
  0
LINE
  8
_0-0_
  6
CONTINUOUS
 62
    7
 10
513.99998784631146
 20
949.99996255762778
 11
517.10581638754172
 21
961.59107247309657
  0
LINE
  8
_0-0_
  6
CONTINUOUS
 62
    7
 10
513.99998784631146
 20
949.99996255762778
 11
522.48526922054998
 21
958.48524393186631
  0
CIRCLE
  8
_0-0_
  6
CONTINUOUS
 62
    7
 10
556.72392938370763
 20
1024
 40
12
  0
TEXT
  8
_0-0_
 62
    7
 10
546.72392938370763
 20
1014
 40
20
 41
1
 50
0
  1
３
  0
TEXT
  8
_0-0_
 62
    7
 10
570.72392938370763
 20
1014
 40
20
 41
1
 50
0
  1
８
  0
CIRCLE
  8
_0-0_
  6
CONTINUOUS
 62
    7
 10
580.72392938370763
 20
1024
 40
12
  0
TEXT
  8
_0-0_
 62
    7
 10
593.59124139342157
 20
1012.8820837915523
 40
14
 41
1
 50
0
  1
x4
  0
LINE
  8
_0-0_
  6
CONTINUOUS
 62
    7
 10
463.99999999932936
 20
952
 11
455.51471862509078
 21
960.48528137423864
  0
LINE
  8
_0-0_
  6
CONTINUOUS
 62
    7
 10
463.99999999932936
 20
952
 11
460.89417145809909
 21
963.59110991546879
  0
CIRCLE
  8
_0-0_
  6
CONTINUOUS
 62
    7
 10
422.43078061767642
 20
1024
 40
12
  0
CIRCLE
  8
_0-0_
  6
CONTINUOUS
 62
    7
 10
446.43078061767642
 20
1024
 40
12
  0
TEXT
  8
_0-0_
 62
    7
 10
436.43078061767648
 20
1014
 40
20
 41
1
 50
0
  1
８
  0
TEXT
  8
_0-0_
 62
    7
 10
459.29809262739042
 20
1012.8820837915523
 40
14
 41
1
 50
0
  1
x4
  0
LINE
  8
_0-0_
  6
CONTINUOUS
 62
    7
 10
463.99999999932936
 20
952
 11
428.43078061767631
 21
1013.6076951545867
  0
LINE
  8
_0-0_
  6
CONTINUOUS
 62
    7
 10
513.99998784631146
 20
949.99996255762778
 11
550.72392938370751
 21
1013.6076951545867
  0
LINE
  8
_0-0_
  6
CONTINUOUS
 62
    7
 10
307.99999702859179
 20
924.19995951244618
 11
299.51471565435327
 21
932.68524088668482
  0
LINE
  8
_0-0_
  6
CONTINUOUS
 62
    7
 10
307.99999702859179
 20
924.19995951244618
 11
304.89416848736153
 21
935.79106942791509
  0
CIRCLE
  8
_0-0_
  6
CONTINUOUS
 62
    7
 10
250.38041678796708
 20
1024
 40
12
  0
TEXT
  8
_0-0_
 62
    7
 10
240.38041678796708
 20
1014
 40
20
 41
1
 50
0
  1
５
  0
CIRCLE
  8
_0-0_
  6
CONTINUOUS
 62
    7
 10
274.38041678796708
 20
1024
 40
12
  0
LINE
  8
_0-0_
  6
CONTINUOUS
 62
    7
 10
307.99999702859179
 20
924.19995951244618
 11
256.38041678796708
 21
1013.6076951545867
  0
TEXT
  8
_0-0_
 62
    7
 10
264.38041678796708
 20
1014
 40
20
 41
1
 50
0
  1
６
  0
TEXT
  8
_0-0_
 62
    7
 10
412.43078061767648
 20
1014
 40
20
 41
1
 50
0
  1
４
  0
LINE
  8
_0-0_
  6
CONTINUOUS
 62
    7
 10
746.50003409529609
 20
452.00001295919526
 11
758.09114401076488
 21
448.89418441796499
  0
LINE
  8
_0-0_
  6
CONTINUOUS
 62
    7
 10
746.50003409529609
 20
452.00001295919526
 11
754.98531546953461
 21
443.51473158495668
  0
LINE
  8
_0-0_
  6
CONTINUOUS
 62
    7
 10
746.50003409529609
 20
452.00001295919526
 11
804.00000810000006
 21
418.80238748918293
  0
TEXT
  8
_0-0_
 62
    7
 10
804.00000810000006
 20
418.80238748918293
 40
16
 41
1
 50
0
  1
5-水抜き穴
  0
LINE
  8
_0-0_
  6
CONTINUOUS
 62
    7
 10
804.00000810000006
 20
418.80238748918293
 11
883.46034479417278
 21
418.80238748918293
  0
LINE
  8
_0-0_
  6
CONTINUOUS
 62
    2
 10
184.99999621839049
 20
1052
 11
196.59110613385928
 21
1055.1058285412303
  0
LINE
  8
_0-0_
  6
CONTINUOUS
 62
    2
 10
184.99999621839049
 20
1052
 11
196.59110613385928
 21
1048.8941714587697
  0
LINE
  8
_0-0_
  6
CONTINUOUS
 62
    2
 10
742.99999297758563
 20
1052
 11
731.40888306211684
 21
1055.1058285412303
  0
LINE
  8
_0-0_
  6
CONTINUOUS
 62
    2
 10
742.99999297758563
 20
1052
 11
731.40888306211684
 21
1048.8941714587697
  0
LINE
  8
_0-0_
  6
CONTINUOUS
 62
    2
 10
184.99999621839049
 20
1056
 11
184.99999621839049
 21
966.99998487624441
  0
LINE
  8
_0-0_
  6
CONTINUOUS
 62
    2
 10
742.99999297758563
 20
1056
 11
742.99999297758563
 21
966.99998487624441
  0
LINE
  8
_0-0_
  6
CONTINUOUS
 62
    2
 10
184.99999621839049
 20
1052
 11
742.99999297758563
 21
1052
  0
TEXT
  8
_0-0_
 62
    7
 10
447.99999459798806
 20
1054
 40
20
 41
1
 50
0
  1
558
  0
LINE
  8
_0-0_
  6
CONTINUOUS
 62
    2
 10
163.99999999932936
 20
1080
 11
175.59110991479815
 21
1083.1058285412303
  0
LINE
  8
_0-0_
  6
CONTINUOUS
 62
    2
 10
163.99999999932936
 20
1080
 11
175.59110991479815
 21
1076.8941714587697
  0
LINE
  8
_0-0_
  6
CONTINUOUS
 62
    2
 10
764.00000810134122
 20
1080
 11
752.40889818587243
 21
1083.1058285412303
  0
LINE
  8
_0-0_
  6
CONTINUOUS
 62
    2
 10
764.00000810134122
 20
1080
 11
752.40889818587243
 21
1076.8941714587697
  0
LINE
  8
_0-0_
  6
CONTINUOUS
 62
    2
 10
163.99999999932936
 20
1084
 11
163.99999999932936
 21
988
  0
LINE
  8
_0-0_
  6
CONTINUOUS
 62
    2
 10
764.00000810134122
 20
1084
 11
764.00000810134122
 21
988
  0
LINE
  8
_0-0_
  6
CONTINUOUS
 62
    2
 10
163.99999999932936
 20
1080
 11
764.00000810134122
 21
1080
  0
TEXT
  8
_0-0_
 62
    7
 10
448.00000405033529
 20
1082
 40
20
 41
1
 50
0
  1
600
  0
LINE
  8
_0-0_
  6
CONTINUOUS
 62
    2
 10
136
 20
604.99997191302543
 11
132.89417145876973
 21
616.59108182849423
  0
LINE
  8
_0-0_
  6
CONTINUOUS
 62
    2
 10
136
 20
604.99997191302543
 11
139.10582854123027
 21
616.59108182849423
  0
LINE
  8
_0-0_
  6
CONTINUOUS
 62
    2
 10
136
 20
962.99998487624441
 11
132.89417145876973
 21
951.40887496077562
  0
LINE
  8
_0-0_
  6
CONTINUOUS
 62
    2
 10
136
 20
962.99998487624441
 11
139.10582854123027
 21
951.40887496077562
  0
LINE
  8
_0-0_
  6
CONTINUOUS
 62
    2
 10
132
 20
604.99997191302543
 11
180.99999621839049
 21
604.99997191302543
  0
LINE
  8
_0-0_
  6
CONTINUOUS
 62
    2
 10
132
 20
962.99998487624441
 11
180.99999621839049
 21
962.99998487624441
  0
LINE
  8
_0-0_
  6
CONTINUOUS
 62
    2
 10
136
 20
604.99997191302543
 11
136
 21
962.99998487624441
  0
TEXT
  8
_0-0_
 62
    7
 10
134
 20
767.99997839463492
 40
20
 41
1
 50
90
  1
358
  0
LINE
  8
_0-0_
  6
CONTINUOUS
 62
    2
 10
108
 20
583.99999459865876
 11
104.89417145876973
 21
595.59110451412755
  0
LINE
  8
_0-0_
  6
CONTINUOUS
 62
    2
 10
108
 20
583.99999459865876
 11
111.10582854123027
 21
595.59110451412755
  0
LINE
  8
_0-0_
  6
CONTINUOUS
 62
    2
 10
108
 20
984
 11
104.89417145876973
 21
972.40889008453121
  0
LINE
  8
_0-0_
  6
CONTINUOUS
 62
    2
 10
108
 20
984
 11
111.10582854123027
 21
972.40889008453121
  0
LINE
  8
_0-0_
  6
CONTINUOUS
 62
    2
 10
104
 20
583.99999459865876
 11
159.99999999932936
 21
583.99999459865876
  0
LINE
  8
_0-0_
  6
CONTINUOUS
 62
    2
 10
104
 20
984
 11
159.99999999932936
 21
984
  0
LINE
  8
_0-0_
  6
CONTINUOUS
 62
    2
 10
108
 20
583.99999459865876
 11
108
 21
984
  0
TEXT
  8
_0-0_
 62
    7
 10
106
 20
767.99999729932938
 40
20
 41
1
 50
90
  1
400
  0
LINE
  8
_0-0_
  6
CONTINUOUS
 62
    2
 10
886.00004105019354
 20
1080
 11
897.59115096566234
 21
1083.1058285412303
  0
LINE
  8
_0-0_
  6
CONTINUOUS
 62
    2
 10
886.00004105019354
 20
1080
 11
897.59115096566234
 21
1076.8941714587697
  0
LINE
  8
_0-0_
  6
CONTINUOUS
 62
    2
 10
1085.999987036781
 20
1080
 11
1074.4088771213121
 21
1083.1058285412303
  0
LINE
  8
_0-0_
  6
CONTINUOUS
 62
    2
 10
1085.999987036781
 20
1080
 11
1074.4088771213121
 21
1076.8941714587697
  0
LINE
  8
_0-0_
  6
CONTINUOUS
 62
    2
 10
886.00004105019354
 20
1084
 11
886.00004105019354
 21
988
  0
LINE
  8
_0-0_
  6
CONTINUOUS
 62
    2
 10
1085.999987036781
 20
1084
 11
1085.999987036781
 21
988
  0
LINE
  8
_0-0_
  6
CONTINUOUS
 62
    2
 10
886.00004105019354
 20
1080
 11
1085.999987036781
 21
1080
  0
TEXT
  8
_0-0_
 62
    7
 10
970.00001404348723
 20
1082
 40
20
 41
1
 50
0
  1
200
  0
LINE
  8
_0-f_
  6
CONTINUOUS
 62
    7
 10
1620
 20
212
 11
1620
 21
428
  0
LINE
  8
_0-f_
  6
CONTINUOUS
 62
    7
 10
1500
 20
212
 11
1500
 21
428
  0
POINT
  8
_0-f_
 62
    9
 10
1560
 20
360
  0
POINT
  8
_0-f_
 62
    9
 10
1560
 20
384
  0
POINT
  8
_0-f_
 62
    9
 10
1560
 20
336
  0
POINT
  8
_0-f_
 62
    9
 10
1560
 20
312
  0
POINT
  8
_0-f_
 62
    9
 10
1560
 20
288
  0
POINT
  8
_0-f_
 62
    9
 10
1560
 20
264
  0
POINT
  8
_0-f_
 62
    9
 10
1560
 20
240
  0
POINT
  8
_0-f_
 62
    9
 10
1560
 20
216
  0
POINT
  8
_0-f_
 62
    9
 10
1560
 20
408
  0
TEXT
  8
_0-f_
 62
    7
 10
1544
 20
408
 40
16
 41
1
 50
0
  1
備考
  0
POINT
  8
_0-f_
 62
    9
 10
1472
 20
408
  0
POINT
  8
_0-f_
 62
    9
 10
1472
 20
384
  0
POINT
  8
_0-f_
 62
    9
 10
1472
 20
360
  0
POINT
  8
_0-f_
 62
    9
 10
1472
 20
336
  0
POINT
  8
_0-f_
 62
    9
 10
1472
 20
312
  0
POINT
  8
_0-f_
 62
    9
 10
1472
 20
288
  0
POINT
  8
_0-f_
 62
    9
 10
1472
 20
264
  0
POINT
  8
_0-f_
 62
    9
 10
1472
 20
240
  0
POINT
  8
_0-f_
 62
    9
 10
1472
 20
216
  0
LINE
  8
_0-f_
  6
CONTINUOUS
 62
    7
 10
1444
 20
212
 11
1444
 21
428
  0
POINT
  8
_0-f_
 62
    9
 10
1304
 20
408
  0
POINT
  8
_0-f_
 62
    9
 10
1304
 20
384
  0
POINT
  8
_0-f_
 62
    9
 10
1304
 20
360
  0
POINT
  8
_0-f_
 62
    9
 10
1384
 20
408
  0
POINT
  8
_0-f_
 62
    9
 10
1384
 20
384
  0
POINT
  8
_0-f_
 62
    9
 10
1384
 20
360
  0
POINT
  8
_0-f_
 62
    9
 10
1304
 20
336
  0
POINT
  8
_0-f_
 62
    9
 10
1384
 20
336
  0
POINT
  8
_0-f_
 62
    9
 10
1304
 20
312
  0
POINT
  8
_0-f_
 62
    9
 10
1384
 20
312
  0
POINT
  8
_0-f_
 62
    9
 10
1304
 20
288
  0
POINT
  8
_0-f_
 62
    9
 10
1384
 20
288
  0
POINT
  8
_0-f_
 62
    9
 10
1304
 20
264
  0
POINT
  8
_0-f_
 62
    9
 10
1384
 20
264
  0
POINT
  8
_0-f_
 62
    9
 10
1304
 20
240
  0
POINT
  8
_0-f_
 62
    9
 10
1384
 20
240
  0
POINT
  8
_0-f_
 62
    9
 10
1304
 20
216
  0
POINT
  8
_0-f_
 62
    9
 10
1384
 20
216
  0
LINE
  8
_0-f_
  6
CONTINUOUS
 62
    7
 10
1284
 20
212
 11
1284
 21
428
  0
LINE
  8
_0-f_
  6
CONTINUOUS
 62
    7
 10
1324
 20
212
 11
1324
 21
428
  0
TEXT
  8
_0-f_
 62
    7
 10
1288
 20
408
 40
16
 41
1
 50
0
  1
番号
  0
TEXT
  8
_0-f_
 62
    7
 10
1344
 20
408
 40
16
 41
1
 50
0
  1
部　材　名
  0
TEXT
  8
_0-f_
 62
    7
 10
1296
 20
384
 40
16
 41
1
 50
0
  1
１
  0
TEXT
  8
_0-f_
 62
    7
 10
1296
 20
360
 40
16
 41
1
 50
0
  1
２
  0
TEXT
  8
_0-f_
 62
    7
 10
1296
 20
336
 40
16
 41
1
 50
0
  1
３
  0
TEXT
  8
_0-f_
 62
    7
 10
1296
 20
312
 40
16
 41
1
 50
0
  1
４
  0
TEXT
  8
_0-f_
 62
    7
 10
1296
 20
288
 40
16
 41
1
 50
0
  1
５
  0
TEXT
  8
_0-f_
 62
    7
 10
1296
 20
264
 40
16
 41
1
 50
0
  1
６
  0
TEXT
  8
_0-f_
 62
    7
 10
1296
 20
240
 40
16
 41
1
 50
0
  1
７
  0
TEXT
  8
_0-f_
 62
    7
 10
1296
 20
216
 40
16
 41
1
 50
0
  1
８
  0
TEXT
  8
_0-f_
 62
    7
 10
1368
 20
384
 40
16
 41
1
 50
0
  1
本体
  0
TEXT
  8
_0-f_
 62
    7
 10
1376
 20
360
 40
16
 41
1
 50
0
  1
扉
  0
TEXT
  8
_0-f_
 62
    7
 10
1352
 20
336
 40
16
 41
1
 50
0
  1
埋込取手
  0
TEXT
  8
_0-f_
 62
    7
 10
1328
 20
312
 40
16
 41
1
 50
0
  1
ボールキャッチ
  0
TEXT
  8
_0-f_
 62
    7
 10
1360
 20
288
 40
16
 41
1
 50
0
  1
クサリ
  0
TEXT
  8
_0-f_
 62
    7
 10
1328
 20
264
 40
16
 41
1
 50
0
  1
クサリ止め金具
  0
TEXT
  8
_0-f_
 62
    7
 10
1344
 20
240
 40
16
 41
1
 50
0
  1
丸リベット
  0
TEXT
  8
_0-f_
 62
    7
 10
1328
 20
216
 40
16
 41
1
 50
0
  1
皿ビス・ナット
  0
LINE
  8
_0-f_
  6
CONTINUOUS
 62
    7
 10
1284
 20
428
 11
1620
 21
428
  0
LINE
  8
_0-f_
  6
CONTINUOUS
 62
    7
 10
1284
 20
404
 11
1620
 21
404
  0
LINE
  8
_0-f_
  6
CONTINUOUS
 62
    7
 10
1284
 20
380
 11
1620
 21
380
  0
LINE
  8
_0-f_
  6
CONTINUOUS
 62
    7
 10
1284
 20
356
 11
1620
 21
356
  0
LINE
  8
_0-f_
  6
CONTINUOUS
 62
    7
 10
1284
 20
332
 11
1620
 21
332
  0
LINE
  8
_0-f_
  6
CONTINUOUS
 62
    7
 10
1284
 20
308
 11
1620
 21
308
  0
LINE
  8
_0-f_
  6
CONTINUOUS
 62
    7
 10
1284
 20
284
 11
1620
 21
284
  0
LINE
  8
_0-f_
  6
CONTINUOUS
 62
    7
 10
1284
 20
260
 11
1620
 21
260
  0
LINE
  8
_0-f_
  6
CONTINUOUS
 62
    7
 10
1284
 20
236
 11
1620
 21
236
  0
LINE
  8
_0-f_
  6
CONTINUOUS
 62
    7
 10
1284
 20
212
 11
1620
 21
212
  0
TEXT
  8
_0-f_
 62
    7
 10
1456
 20
408
 40
16
 41
1
 50
0
  1
材質
  0
TEXT
  8
_0-f_
 62
    7
 10
1448
 20
336
 40
16
 41
1
 50
0
  1
SUS304
  0
TEXT
  8
_0-f_
 62
    7
 10
1460
 20
312
 40
16
 41
1
 50
0
  1
ZDC
  0
TEXT
  8
_0-f_
 62
    7
 10
1448
 20
288
 40
16
 41
1
 50
0
  1
SUS304
  0
TEXT
  8
_0-f_
 62
    7
 10
1452
 20
264
 40
16
 41
1
 50
0
  1
SS400
  0
TEXT
  8
_0-f_
 62
    7
 10
1448
 20
240
 40
16
 41
1
 50
0
  1
SUS304
  0
TEXT
  8
_0-f_
 62
    7
 10
1448
 20
216
 40
16
 41
1
 50
0
  1
SUS304
  0
TEXT
  8
_0-f_
 62
    7
 10
1548
 20
288
 40
16
 41
1
 50
0
  1
φ3
  0
TEXT
  8
_0-f_
 62
    7
 10
1504
 20
264
 40
16
 41
1
 50
0
  1
ユニクロメッキ
  0
TEXT
  8
_0-f_
 62
    7
 10
1548
 20
240
 40
16
 41
1
 50
0
  1
φ6
  0
TEXT
  8
_0-f_
 62
    7
 10
1548
 20
216
 40
16
 41
1
 50
0
  1
Ｍ4
  0
TEXT
  8
_0-f_
 62
    7
 10
1176
 20
114
 40
14
 41
1
 50
0
  1
Ａ３
  0
TEXT
  8
_0-f_
 62
    7
 10
1376
 20
548
 40
16
 41
1
 50
0
  1
　　　別途加工できます
  0
TEXT
  8
_0-f_
 62
    7
 10
1376
 20
568
 40
16
 41
1
 50
0
  1
※１）取付穴・配管用穴は、
  0
TEXT
  8
_0-f_
 62
    7
 10
1376
 20
608
 40
16
 41
1
 50
0
  1
　４）裏板付
  0
TEXT
  8
_0-f_
 62
    7
 10
1376
 20
628
 40
16
 41
1
 50
0
  1
　３）扉 取外し可能
  0
TEXT
  8
_0-f_
 62
    7
 10
1376
 20
648
 40
16
 41
1
 50
0
  1
　２）保温マット付
  0
POINT
  8
_0-f_
 62
    9
 10
1376
 20
668
  0
POINT
  8
_0-f_
 62
    9
 10
1376
 20
648
  0
POINT
  8
_0-f_
 62
    9
 10
1376
 20
628
  0
POINT
  8
_0-f_
 62
    9
 10
1376
 20
608
  0
POINT
  8
_0-f_
 62
    9
 10
1376
 20
568
  0
POINT
  8
_0-f_
 62
    9
 10
1376
 20
548
  0
ARC
  8
_0-5_
  6
DASHED2
 62
    4
 10
313.99999729865863
 20
935.50000648160949
 40
1.5000000675167657
 50
0
 51
89.999969482421875
  0
ARC
  8
_0-5_
  6
DASHED2
 62
    4
 10
313.99999729865863
 20
935.50000648160949
 40
1.5000000675167657
 50
89.999969482421875
 51
180.00001525878903
  0
LINE
  8
_0-5_
  6
DASHED2
 62
    4
 10
312.4999854157079
 20
935.50000648160949
 11
312.4999854157079
 21
926.50001080268248
  0
LINE
  8
_0-5_
  6
DASHED2
 62
    4
 10
315.50000918160947
 20
935.50000648160949
 11
315.50000918160947
 21
926.50001080268248
  0
ARC
  8
_0-5_
  6
DASHED2
 62
    4
 10
313.99999729865863
 20
926.50001080268248
 40
1.5000000675167657
 50
180.00001525878906
 51
270
  0
ARC
  8
_0-5_
  6
DASHED2
 62
    4
 10
313.99999729865863
 20
926.50001080268248
 40
1.5000000675167657
 50
270
 51
0
  0
ARC
  8
_0-5_
  6
DASHED2
 62
    4
 10
313.99999729865863
 20
924.99996111034295
 40
6.0000002700670629
 50
104.60311889648437
 51
180.00001525878906
  0
ARC
  8
_0-5_
  6
DASHED2
 62
    4
 10
313.99999729865863
 20
924.99996111034295
 40
3.0000001350335315
 50
119.57009887695312
 51
180.00001525878903
  0
ARC
  8
_0-5_
  6
DASHED2
 62
    4
 10
313.99999729865863
 20
924.99996111034295
 40
3.0000001350335315
 50
0
 51
60.211380004882805
  0
ARC
  8
_0-5_
  6
DASHED2
 62
    4
 10
313.99999729865863
 20
924.99996111034295
 40
6.0000002700670629
 50
0
 51
75.522476196289063
  0
ARC
  8
_0-5_
  6
DASHED2
 62
    4
 10
313.99999729865863
 20
852.99999567892701
 40
6.0000002700670629
 50
180.00001525878906
 51
0.0000000000000254
  0
ARC
  8
_0-5_
  6
DASHED2
 62
    4
 10
314.00003510804754
 20
852.99999567892701
 40
3.0000001350335315
 50
180.00001525878906
 51
0.0000000000000254
  0
ARC
  8
_0-5_
  6
DASHED2
 62
    4
 10
313.99999729865863
 20
872.99995246819685
 40
3.0000001350335315
 50
119.57009887695312
 51
180.00001525878903
  0
ARC
  8
_0-5_
  6
DASHED2
 62
    4
 10
313.99999729865863
 20
872.99995246819685
 40
6.0000002700670629
 50
104.60311889648437
 51
180.00001525878906
  0
ARC
  8
_0-5_
  6
DASHED2
 62
    4
 10
313.99999729865863
 20
872.99995246819685
 40
3.0000001350335315
 50
0
 51
60.211380004882805
  0
ARC
  8
_0-5_
  6
DASHED2
 62
    4
 10
313.99999729865863
 20
872.99995246819685
 40
6.0000002700670629
 50
0
 51
75.522476196289063
  0
ARC
  8
_0-5_
  6
DASHED2
 62
    4
 10
313.99999729865863
 20
905.00000432107299
 40
6.0000002700670629
 50
180.00001525878906
 51
255.39689636230469
  0
ARC
  8
_0-5_
  6
DASHED2
 62
    4
 10
313.99999729865863
 20
905.00000432107299
 40
3.0000001350335315
 50
180.00001525878906
 51
240.42987060546875
  0
ARC
  8
_0-5_
  6
DASHED2
 62
    4
 10
313.99999729865863
 20
905.00000432107299
 40
3.0000001350335315
 50
299.78858947753906
 51
0
  0
ARC
  8
_0-5_
  6
DASHED2
 62
    4
 10
313.99999729865863
 20
905.00000432107299
 40
6.0000002700670629
 50
284.47749328613281
 51
0.0000000000000254
  0
ARC
  8
_0-5_
  6
DASHED2
 62
    4
 10
313.99999729865863
 20
903.49995462873335
 40
1.5000000675167657
 50
89.999969482421875
 51
180.00001525878903
  0
ARC
  8
_0-5_
  6
DASHED2
 62
    4
 10
313.99999729865863
 20
903.49995462873335
 40
1.5000000675167657
 50
0
 51
89.999969482421875
  0
ARC
  8
_0-5_
  6
DASHED2
 62
    4
 10
313.99999729865863
 20
874.5000021605365
 40
1.5000000675167657
 50
270
 51
0
  0
ARC
  8
_0-5_
  6
DASHED2
 62
    4
 10
313.99999729865863
 20
874.5000021605365
 40
1.5000000675167657
 50
180.00001525878906
 51
270
  0
LINE
  8
_0-5_
  6
DASHED2
 62
    4
 10
307.99998757624439
 20
924.99996111034295
 11
307.99998757624439
 21
905.00000432107299
  0
LINE
  8
_0-5_
  6
DASHED2
 62
    4
 10
311.00001134214597
 20
924.99996111034295
 11
311.00001134214597
 21
905.00000432107299
  0
LINE
  8
_0-5_
  6
DASHED2
 62
    4
 10
316.9999832551714
 20
924.99996111034295
 11
316.9999832551714
 21
905.00000432107299
  0
LINE
  8
_0-5_
  6
DASHED2
 62
    4
 10
320.00000702107297
 20
924.99996111034295
 11
320.00000702107297
 21
905.00000432107299
  0
LINE
  8
_0-5_
  6
DASHED2
 62
    4
 10
307.99998757624439
 20
852.99999567892701
 11
307.99998757624439
 21
872.99995246819685
  0
LINE
  8
_0-5_
  6
DASHED2
 62
    4
 10
311.00001134214597
 20
852.99999567892701
 11
311.00001134214597
 21
872.99995246819685
  0
LINE
  8
_0-5_
  6
DASHED2
 62
    4
 10
320.00000702107297
 20
852.99999567892701
 11
320.00000702107297
 21
872.99995246819685
  0
LINE
  8
_0-5_
  6
DASHED2
 62
    4
 10
316.9999832551714
 20
852.99999567892701
 11
316.9999832551714
 21
872.99995246819685
  0
LINE
  8
_0-5_
  6
DASHED2
 62
    4
 10
312.4999854157079
 20
903.49995462873335
 11
312.4999854157079
 21
874.5000021605365
  0
LINE
  8
_0-5_
  6
DASHED2
 62
    4
 10
315.50000918160947
 20
903.49995462873335
 11
315.50000918160947
 21
874.5000021605365
  0
TEXT
  8
_0-f_
 62
    7
 10
1376
 20
668
 40
16
 41
1
 50
0
  1
注１）ヘアーライン仕上げ
  0
TEXT
  8
_0-f_
 62
    7
 10
1448
 20
360
 40
16
 41
1
 50
0
  1
SUS304
  0
TEXT
  8
_0-f_
 62
    7
 10
1448
 20
384
 40
16
 41
1
 50
0
  1
SUS304
  0
TEXT
  8
_0-f_
 62
    7
 10
1532
 20
384
 40
16
 41
1
 50
0
  1
t1.5-HL
  0
TEXT
  8
_0-f_
 62
    7
 10
1532
 20
360
 40
16
 41
1
 50
0
  1
t1.5-HL
  0
LINE
  8
_0-2_
  6
DASHED2
 62
    4
 10
720.99999513812213
 20
635.99997606530656
 11
720.99999513812213
 21
625.9999764028903
  0
ARC
  8
_0-7_
  6
DASHED2
 62
    4
 10
720.99999513812213
 20
630.99997623409843
 40
4.9999998312080853
 50
90
 51
270
  0
LINE
  8
_0-7_
  6
DASHED2
 62
    4
 10
720.99999513812213
 20
634
 11
760.99998433543965
 21
634
  0
LINE
  8
_0-7_
  6
DASHED2
 62
    4
 10
720.99999513812213
 20
627.99999027758577
 11
760.99998433543965
 21
627.99999027758577
  0
LINE
  8
_0-2_
  6
DASHED2
 62
    4
 10
206.999994057854
 20
635.99997606530656
 11
206.999994057854
 21
625.9999764028903
  0
ARC
  8
_0-7_
  6
DASHED2
 62
    4
 10
206.999994057854
 20
630.99997623409843
 40
4.9999998312080853
 50
270
 51
90
  0
LINE
  8
_0-7_
  6
DASHED2
 62
    4
 10
206.999994057854
 20
634
 11
167.00000486053648
 21
634
  0
LINE
  8
_0-7_
  6
DASHED2
 62
    4
 10
206.999994057854
 20
627.99999027758577
 11
167.00000486053648
 21
627.99999027758577
  0
POINT
  8
_0-0_
 62
    2
 10
718.99999297758563
 20
783.99999729932938
  0
CIRCLE
  8
_0-0_
  6
CONTINUOUS
 62
    7
 10
804
 20
833.07477423484033
 40
12
  0
TEXT
  8
_0-0_
 62
    7
 10
794
 20
823.07477423484033
 40
20
 41
1
 50
0
  1
２
  0
LINE
  8
_0-0_
  6
CONTINUOUS
 62
    7
 10
718.99999297758563
 20
783.99999729932938
 11
793.60769515458674
 21
827.07477423484033
  0
LINE
  8
_0-0_
  6
CONTINUOUS
 62
    7
 10
764.00000810134122
 20
883.99999864966469
 11
772.48528947557975
 21
892.48528002390321
  0
LINE
  8
_0-0_
  6
CONTINUOUS
 62
    7
 10
764.00000810134122
 20
883.99999864966469
 11
775.59111801681001
 21
887.10582719089496
  0
CIRCLE
  8
_0-0_
  6
CONTINUOUS
 62
    7
 10
804
 20
907.0940047399381
 40
12
  0
TEXT
  8
_0-0_
 62
    7
 10
794
 20
897.0940047399381
 40
20
 41
1
 50
0
  1
１
  0
LINE
  8
_0-0_
  6
CONTINUOUS
 62
    7
 10
764.00000810134122
 20
883.99999864966469
 11
793.60769515458674
 21
901.0940047399381
  0
LINE
  8
_0-2_
  6
DASHED2
 62
    4
 10
734.49998865651264
 20
823.99996759195244
 11
193.50000053946349
 21
823.99996759195244
  0
LINE
  8
_0-2_
  6
DASHED2
 62
    4
 10
193.50000053946349
 20
823.99996759195244
 11
193.50000053946349
 21
743.99998919731752
  0
LINE
  8
_0-2_
  6
DASHED2
 62
    4
 10
734.49998865651264
 20
743.99998919731752
 11
193.50000053946349
 21
743.99998919731752
  0
LINE
  8
_0-2_
  6
DASHED2
 62
    4
 10
734.49998865651264
 20
823.99996759195244
 11
734.49998865651264
 21
743.99998919731752
  0
LINE
  8
_0-2_
  6
DASHED2
 62
    4
 10
734.49998865651264
 20
808.00001728429208
 11
193.50000053946349
 21
808.00001728429208
  0
LINE
  8
_0-2_
  6
DASHED2
 62
    4
 10
734.49998865651264
 20
760.00001512375559
 11
193.50000053946349
 21
760.00001512375559
  0
TEXT
  8
_0-f_
 62
    7
 10
1552
 20
114
 40
14
 41
1
 50
0
  1
FREE
  0
TEXT
  8
_0-f_
 62
    7
 10
1142
 20
78
 40
14
 41
1
 50
0
  1
2005.10.22.-9-2
  0
TEXT
  8
_0-f_
 62
    7
 10
1276
 20
78
 40
18
 41
0.8888888888888888
 50
0
  1
ステンレス製メーターボックス（壁用・露出型）
  0
TEXT
  8
_0-f_
 62
    7
 10
1276
 20
42
 40
18
 41
1
 50
0
  1
ＳＢ６０－２
  0
TEXT
  8
_0-f_
 62
    7
 10
1592
 20
42
 40
14
 41
1
 50
0
  1
SB
  0
ENDSEC
  0
EOF
