  0
SECTION
  2
HEADER
  9
$ACADVER
  1
AC1009
  9
$INSBASE
 10
0
 20
0
 30
0
  9
$EXTMIN
 10
0
 20
0
  9
$EXTMAX
 10
2100
 20
1485
  9
$LIMMIN
 10
0
 20
0
  9
$LIMMAX
 10
2100
 20
1485
  9
$LTSCALE
 40
5
  0
ENDSEC
  0
SECTION
  2
TABLES
  0
TABLE
  2
LTYPE
 70
     9
  0
LTYPE
  2
CONTINUOUS
 70
    64
  3
実線
 72
    65
 73
     0
 40
0.0
  0
LTYPE
  2
DASHED1
 70
    64
  3
--  --  --  --  --  --  --  --  
 72
    65
 73
     2
 40
2.5
 49
1.25
 49
-1.25
  0
LTYPE
  2
DASHED2
 70
    64
  3
----    ----    ----    ----    
 72
    65
 73
     2
 40
5.0
 49
2.5
 49
-2.5
  0
LTYPE
  2
DASHED3
 70
    64
  3
------  ------  ------  ------  
 72
    65
 73
     2
 40
5.0
 49
3.75
 49
-1.25
  0
LTYPE
  2
CENTER1
 70
    64
  3
----- - ----- - ----- - ----- - 
 72
    65
 73
     4
 40
10.0
 49
6.25
 49
-1.25
 49
1.25
 49
-1.25
  0
LTYPE
  2
CENTER2
 70
    64
  3
----------  --  ----------  --  
 72
    65
 73
     4
 40
20.0
 49
12.5
 49
-2.5
 49
2.5
 49
-2.5
  0
LTYPE
  2
PHANTOM1
 70
    64
  3
--- - - --- - - --- - - --- - - 
 72
    65
 73
     6
 40
10.0
 49
3.25
 49
-1.25
 49
1.25
 49
-1.25
 49
1.25
 49
-1.25
  0
LTYPE
  2
PHANTOM2
 70
    64
  3
--------  -  -  --------  -  -  
 72
    65
 73
     6
 40
20.0
 49
10.0
 49
-2.5
 49
1.25
 49
-2.5
 49
1.25
 49
-2.5
  0
LTYPE
  2
DOT
 70
    64
  3
-   -   -   -   -   -   -   -   
 72
    65
 73
     2
 40
2.5
 49
0.625
 49
-1.875
  0
LTYPE
  2
DUMMY
 70
    64
  3
ダミー
 72
    65
 73
     0
 40
0.0
  0
LTYPE
  2
RAND1
 70
    64
  3
ランダム線1
 72
    65
 73
     4
 40
10.0
 49
1.0
 49
-2.0
 49
3.0
 49
-4.0
  0
LTYPE
  2
RAND2
 70
    64
  3
ランダム線2
 72
    65
 73
     4
 40
14.0
 49
2.0
 49
-3.0
 49
4.0
 49
-5.0
  0
LTYPE
  2
RAND3
 70
    64
  3
ランダム線3
 72
    65
 73
     4
 40
18.0
 49
3.0
 49
-4.0
 49
5.0
 49
-6.0
  0
LTYPE
  2
RAND4
 70
    64
  3
ランダム線4
 72
    65
 73
     4
 40
22.0
 49
4.0
 49
-5.0
 49
6.0
 49
-7.0
  0
LTYPE
  2
RAND5
 70
    64
  3
ランダム線5
 72
    65
 73
     4
 40
26.0
 49
5.0
 49
-6.0
 49
7.0
 49
-8.0
  0
LTYPE
  2
LONG1
 70
    64
  3
----------  --  ----------  --  
 72
    65
 73
     4
 40
40.0
 49
32.5
 49
-2.5
 49
2.5
 49
-2.5
  0
LTYPE
  2
LONG2
 70
    64
  3
--------  -  -  --------  -  -  
 72
    65
 73
     6
 40
40.0
 49
30.0
 49
-2.5
 49
1.25
 49
-2.5
 49
1.25
 49
-2.5
  0
LTYPE
  2
LONG3
 70
    64
  3
+++++++++++++++..+++++++++++++++
 72
    65
 73
     2
 40
40.0
 49
37.5
 49
-2.5
  0
LTYPE
  2
LONG4
 70
    64
  3
+++++++++++++++..+++++++++++++++
 72
    65
 73
     2
 40
80.0
 49
75.0
 49
-5.0
  0
LTYPE
  2
LONG5
 70
    64
  3
----------  --  ----------  --  
 72
    65
 73
     4
 40
60.0
 49
37.5
 49
-7.5
 49
7.5
 49
-7.5
  0
LTYPE
  2
dashed
 70
   64
  3
-------   -------------   ------
 72
   65
 73
    2
 40
7.5
 49
6
 49
-1.5
  0
LTYPE
  2
dashed_spaced
 70
   64
  3
----        --------        ----
 72
   65
 73
    2
 40
12
 49
6
 49
-6
  0
LTYPE
  2
long_dashed_dotted
 70
   64
  3
------------- --- --------------
 72
   65
 73
    4
 40
15.25
 49
12
 49
-1.5
 49
0.25
 49
-1.5
  0
LTYPE
  2
long_dashed_double-dotted
 70
   64
  3
----------- --- --- ------------
 72
   65
 73
    6
 40
17
 49
12
 49
-1.5
 49
0.25
 49
-1.5
 49
0.25
 49
-1.5
  0
LTYPE
  2
long_dashed_triplicate-dotted
 70
   64
  3
--------- --- --- --- ----------
 72
   65
 73
    8
 40
18.75
 49
12
 49
-1.5
 49
0.25
 49
-1.5
 49
0.25
 49
-1.5
 49
0.25
 49
-1.5
  0
LTYPE
  2
dotted
 70
   64
  3
   -       -       -       -    
 72
   65
 73
    2
 40
1.75
 49
0.25
 49
-1.5
  0
LTYPE
  2
chain
 70
   64
  3
-------------- -- --------------
 72
   65
 73
    4
 40
18.5
 49
12
 49
-1.5
 49
3.5
 49
-1.5
  0
LTYPE
  2
chain_double_dash
 70
   64
  3
------------ -- -- -------------
 72
   65
 73
    6
 40
23.5
 49
12
 49
-1.5
 49
3.5
 49
-1.5
 49
3.5
 49
-1.5
  0
LTYPE
  2
dashed_dotted
 70
   64
  3
-----------     -     ----------
 72
   65
 73
    4
 40
9.25
 49
6
 49
-1.5
 49
0.25
 49
-1.5
  0
LTYPE
  2
double-dashed_dotted
 70
   64
  3
------   -----------   -   -----
 72
   65
 73
    6
 40
16.75
 49
6
 49
-1.5
 49
6
 49
-1.5
 49
0.25
 49
-1.5
  0
LTYPE
  2
dashed_double-dotted
 70
   64
  3
---------    -    -    ---------
 72
   65
 73
    6
 40
11
 49
6
 49
-1.5
 49
0.25
 49
-1.5
 49
0.25
 49
-1.5
  0
LTYPE
  2
double-dashed_double-dotted
 70
   64
  3
-----   ---------   -   -   ----
 72
   65
 73
    8
 40
18.5
 49
6
 49
-1.5
 49
6
 49
-1.5
 49
0.25
 49
-1.5
 49
0.25
 49
-1.5
  0
LTYPE
  2
dashed_triplicate-dotted
 70
   64
  3
-------    -    -    -    ------
 72
   65
 73
    8
 40
12.75
 49
6
 49
-1.5
 49
0.25
 49
-1.5
 49
0.25
 49
-1.5
 49
0.25
 49
-1.5
  0
LTYPE
  2
double-dashed_triplicate-dotted
 70
   64
  3
-----  ---------  -  -  -  -----
 72
   65
 73
   10
 40
20.25
 49
6
 49
-1.5
 49
6
 49
-1.5
 49
0.25
 49
-1.5
 49
0.25
 49
-1.5
 49
0.25
 49
-1.5
  0
LTYPE
  2
undefined
 70
   64
  3
--------------------------------
 72
   65
 73
    0
 40
0
  0
LTYPE
  2
_
 70
   64
  3
                                
 72
   65
 73
    0
 40
0
  0
LTYPE
  2
__18
 70
   64
  3
                                
 72
   65
 73
    0
 40
0
  0
LTYPE
  2
__19
 70
   64
  3
                                
 72
   65
 73
    0
 40
0
  0
LTYPE
  2
__20
 70
   64
  3
                                
 72
   65
 73
    0
 40
0
  0
LTYPE
  2
__21
 70
   64
  3
                                
 72
   65
 73
    0
 40
0
  0
LTYPE
  2
__22
 70
   64
  3
                                
 72
   65
 73
    0
 40
0
  0
LTYPE
  2
__23
 70
   64
  3
                                
 72
   65
 73
    0
 40
0
  0
LTYPE
  2
__24
 70
   64
  3
                                
 72
   65
 73
    0
 40
0
  0
LTYPE
  2
__25
 70
   64
  3
                                
 72
   65
 73
    0
 40
0
  0
LTYPE
  2
__26
 70
   64
  3
                                
 72
   65
 73
    0
 40
0
  0
LTYPE
  2
__27
 70
   64
  3
                                
 72
   65
 73
    0
 40
0
  0
LTYPE
  2
__28
 70
   64
  3
                                
 72
   65
 73
    0
 40
0
  0
LTYPE
  2
__29
 70
   64
  3
                                
 72
   65
 73
    0
 40
0
  0
LTYPE
  2
__30
 70
   64
  3
                                
 72
   65
 73
    0
 40
0
  0
LTYPE
  2
__31
 70
   64
  3
                                
 72
   65
 73
    0
 40
0
  0
LTYPE
  2
__32
 70
   64
  3
                                
 72
   65
 73
    0
 40
0
  0
ENDTAB
  0
TABLE
  2
STYLE
  5
3
100
AcDbSymbolTable
 70
     1
  0
STYLE
  5
10
100
AcDbSymbolTableRecord
100
AcDbTextStyleTableRecord
  2
STANDARD
 70
     0
 40
0.0
 41
1.0
 50
0.0
 71
     0
 42
0.2
  3
txt
  4
bigfont.shx
  0
STYLE
  5
26
100
AcDbSymbolTableRecord
100
AcDbTextStyleTableRecord
  2
TATEGAKI
 70
    68
 40
0.0
 41
1.0
 50
0.0
 71
     0
 42
1.0
  3
txt
  4
bigfont.shx
  0
ENDTAB
  0
TABLE
  2
LAYER
 70
   10
  0
LAYER
  2
_0-0_
 70
   64
 62
    7
  6
CONTINUOUS
  0
LAYER
  2
_0-1_
 70
   64
 62
    7
  6
CONTINUOUS
  0
LAYER
  2
_0-2_
 70
   64
 62
    7
  6
CONTINUOUS
  0
LAYER
  2
_0-3_
 70
   64
 62
    7
  6
CONTINUOUS
  0
LAYER
  2
_0-4_
 70
   64
 62
    7
  6
CONTINUOUS
  0
LAYER
  2
_0-5_
 70
   64
 62
    7
  6
CONTINUOUS
  0
LAYER
  2
_0-6_
 70
   64
 62
    7
  6
CONTINUOUS
  0
LAYER
  2
_0-7_
 70
   64
 62
    7
  6
CONTINUOUS
  0
LAYER
  2
_0-f_
 70
   64
 62
    7
  6
CONTINUOUS
  0
LAYER
  2
ADD_LINE
 70
   64
 62
    7
  6
CONTINUOUS
  0
ENDTAB
  0
ENDSEC
  0
SECTION
  2
BLOCKS
  0
BLOCK
  2
-000-BLK17
 70
   64
 10
0
 20
0
 30
0
  0
LINE
  8
_0-1_
  6
CONTINUOUS
 62
    2
 10
-16.287820000000011
 20
-16.280119999999982
 11
-15.115319999999954
 21
-18.141635000000065
  0
LINE
  8
_0-1_
  6
CONTINUOUS
 62
    2
 10
-11.210954999999956
 20
-13.082394999999991
 11
-16.287820000000011
 21
-16.280119999999982
  0
LINE
  8
_0-1_
  6
CONTINUOUS
 62
    2
 10
-12.03703499999996
 20
-11.770870000000002
 11
-11.210954999999956
 21
-13.082394999999991
  0
LINE
  8
_0-1_
  6
CONTINUOUS
 62
    2
 10
-16.690830000000005
 20
-14.702120000000036
 11
-12.03703499999996
 21
-11.770870000000002
  0
LINE
  8
_0-1_
  6
CONTINUOUS
 62
    2
 10
-17.889975000000007
 20
-12.798295000000053
 11
-16.690830000000005
 21
-14.702120000000036
  0
LINE
  8
_0-1_
  6
CONTINUOUS
 62
    2
 10
-13.23618500000002
 20
-9.8670450000000187
 11
-17.889975000000007
 21
-12.798295000000053
  0
LINE
  8
_0-1_
  6
CONTINUOUS
 62
    2
 10
-4.6444499999999778
 20
-1.4138499999999965
 11
-8.386094999999969
 21
-2.8280949999999905
  0
ARC
  8
_0-1_
  6
CONTINUOUS
 62
    2
 10
-2.8140099999999535
 20
-7.6708050000000583
 40
1
 50
290.70527600000003
 51
20.705276000000026
  0
LINE
  8
_0-1_
  6
CONTINUOUS
 62
    2
 10
0.6367099999999936
 20
-6.901045000000039
 11
-0.7775300000000129
 21
-3.1593999999999767
  0
LINE
  8
_0-1_
  6
CONTINUOUS
 62
    2
 10
14.954189999999983
 20
-7.7591650000000811
 11
13.786564999999982
 21
2.172429999999963
  0
LINE
  8
_0-1_
  6
CONTINUOUS
 62
    2
 10
13.786564999999982
 20
2.172429999999963
 11
11.303665000000009
 21
1.8805249999999774
  0
LINE
  8
_0-1_
  6
CONTINUOUS
 62
    2
 10
22.836770000000044
 20
-7.9420249999999726
 11
32.000294999999994
 21
-10.447975000000014
  0
LINE
  8
_0-1_
  6
CONTINUOUS
 62
    2
 10
32.000294999999994
 20
-10.447975000000014
 11
32.580625000000012
 21
-8.3258949999999743
  0
LINE
  8
_0-1_
  6
CONTINUOUS
 62
    2
 10
32.580625000000012
 20
-8.3258949999999743
 11
29.204585000000023
 21
-7.4026500000000794
  0
LINE
  8
_0-1_
  6
CONTINUOUS
 62
    2
 10
29.204585000000023
 20
-7.4026500000000794
 11
31.262104999999991
 21
0.1210899999999526
  0
LINE
  8
_0-1_
  6
CONTINUOUS
 62
    2
 10
31.262104999999991
 20
0.1210899999999526
 11
28.850650000000044
 21
0.7805499999999199
  0
LINE
  8
_0-1_
  6
CONTINUOUS
 62
    2
 10
28.850650000000044
 20
0.7805499999999199
 11
26.793130000000005
 21
-6.74318999999997
  0
LINE
  8
_0-1_
  6
CONTINUOUS
 62
    2
 10
26.793130000000005
 20
-6.74318999999997
 11
23.417095000000003
 21
-5.8199450000000752
  0
LINE
  8
_0-1_
  6
CONTINUOUS
 62
    2
 10
23.417095000000003
 20
-5.8199450000000752
 11
22.836770000000044
 21
-7.9420249999999726
  0
LINE
  8
_0-1_
  6
CONTINUOUS
 62
    2
 10
-4.8504849999999777
 20
-12.182209999999998
 11
-1.1088399999999865
 21
-10.767965000000004
  0
LINE
  8
_0-1_
  6
CONTINUOUS
 62
    2
 10
18.067070000000029
 20
0.3065599999999335
 11
22.178035000000023
 21
0.0338899999999853
  0
LINE
  8
_0-1_
  6
CONTINUOUS
 62
    2
 10
22.178035000000023
 20
0.0338899999999853
 11
22.816125000000014
 21
1.4948649999999475
  0
LINE
  8
_0-1_
  6
CONTINUOUS
 62
    2
 10
21.157090000000025
 20
-2.3036650000000236
 11
18.770335000000031
 21
-2.1453549999999666
  0
LINE
  8
_0-1_
  6
CONTINUOUS
 62
    2
 10
-19.987764999999982
 20
-17.421400000000062
 11
-27.717829999999992
 21
-15.764275000000083
  0
LINE
  8
_0-1_
  6
CONTINUOUS
 62
    2
 10
4.9565850000000466
 20
-9.0378250000000548
 11
2.4181150000000429
 21
0.6346200000000124
  0
LINE
  8
_0-1_
  6
CONTINUOUS
 62
    2
 10
21.056714999999997
 20
-8.4104100000000415
 11
25.310644999999994
 21
1.3294100000000242
  0
LINE
  8
_0-1_
  6
CONTINUOUS
 62
    2
 10
18.063295000000039
 20
-8.2118649999999604
 11
15.133004999999997
 21
2.004464999999982
  0
LINE
  8
_0-1_
  6
CONTINUOUS
 62
    2
 10
21.056714999999997
 20
-8.4104100000000415
 11
18.063295000000039
 21
-8.2118649999999604
  0
LINE
  8
_0-1_
  6
CONTINUOUS
 62
    2
 10
25.310644999999994
 20
1.3294100000000242
 11
22.816125000000014
 21
1.4948649999999475
  0
LINE
  8
_0-1_
  6
CONTINUOUS
 62
    2
 10
11.303665000000009
 20
1.8805249999999774
 11
12.47129000000001
 21
-8.0510700000000668
  0
ARC
  8
_0-1_
  6
CONTINUOUS
 62
    2
 10
-6.680925000000002
 20
-5.9252550000000781
 40
1
 50
110.705276
 51
200.70527599999997
  0
LINE
  8
_0-1_
  6
CONTINUOUS
 62
    2
 10
19.743844999999993
 20
-5.539449999999988
 11
21.157090000000025
 21
-2.3036650000000236
  0
LINE
  8
_0-1_
  6
CONTINUOUS
 62
    2
 10
15.133004999999997
 20
2.004464999999982
 11
17.627524999999977
 21
1.8390099999999165
  0
LINE
  8
_0-1_
  6
CONTINUOUS
 62
    2
 10
19.743844999999993
 20
-5.539449999999988
 11
18.770335000000031
 21
-2.1453549999999666
  0
LINE
  8
_0-1_
  6
CONTINUOUS
 62
    2
 10
-19.112480000000005
 20
-11.795555000000064
 11
-14.035615000000021
 21
-8.5978300000000729
  0
LINE
  8
_0-1_
  6
CONTINUOUS
 62
    2
 10
-14.035615000000021
 20
-8.5978300000000729
 11
-13.23618500000002
 21
-9.8670450000000187
  0
LINE
  8
_0-1_
  6
CONTINUOUS
 62
    2
 10
18.067070000000029
 20
0.3065599999999335
 11
17.627524999999977
 21
1.8390099999999165
  0
LINE
  8
_0-1_
  6
CONTINUOUS
 62
    2
 10
11.94586000000001
 20
-3.5818550000000471
 11
7.331025000000011
 21
1.4134799999999359
  0
LINE
  8
_0-1_
  6
CONTINUOUS
 62
    2
 10
12.47129000000001
 20
-8.0510700000000668
 11
14.954189999999983
 21
-7.7591650000000811
  0
LINE
  8
_0-1_
  6
CONTINUOUS
 62
    2
 10
0
 20
0
 11
2.5384700000000038
 21
-9.6724450000000672
  0
LINE
  8
_0-1_
  6
CONTINUOUS
 62
    2
 10
4.35154500000003
 20
1.0631899999999916
 11
8.9663800000000293
 21
-3.932140000000004
  0
ARC
  8
_0-1_
  6
CONTINUOUS
 62
    2
 10
-2.1695199999999915
 20
-7.9617299999999602
 40
3
 50
290.70527600000003
 51
20.705276000000026
  0
LINE
  8
_0-1_
  6
CONTINUOUS
 62
    2
 10
7.331025000000011
 20
1.4134799999999359
 11
4.35154500000003
 21
1.0631899999999916
  0
LINE
  8
_0-1_
  6
CONTINUOUS
 62
    2
 10
2.5384700000000038
 20
-9.6724450000000672
 11
4.9565850000000466
 21
-9.0378250000000548
  0
ARC
  8
_0-1_
  6
CONTINUOUS
 62
    2
 10
-3.8746899999999584
 20
-4.8645700000000147
 40
1
 50
20.705276000000001
 51
110.70527600000001
  0
LINE
  8
_0-1_
  6
CONTINUOUS
 62
    2
 10
8.9952300000000207
 20
-8.4597399999999823
 11
11.94586000000001
 21
-3.5818550000000471
  0
LINE
  8
_0-1_
  6
CONTINUOUS
 62
    2
 10
6.0157500000000397
 20
-8.8100250000000813
 11
8.9952300000000207
 21
-8.4597399999999823
  0
LINE
  8
_0-1_
  6
CONTINUOUS
 62
    2
 10
2.4181150000000429
 20
0.6346200000000124
 11
0
 21
0
  0
LINE
  8
_0-1_
  6
CONTINUOUS
 62
    2
 10
8.9663800000000293
 20
-3.932140000000004
 11
6.0157500000000397
 21
-8.8100250000000813
  0
LINE
  8
_0-1_
  6
CONTINUOUS
 62
    2
 10
-23.058405000000022
 20
-25.107174999999984
 11
-29.904549999999972
 21
-17.818120000000022
  0
LINE
  8
_0-1_
  6
CONTINUOUS
 62
    2
 10
-15.115319999999954
 20
-18.141635000000065
 11
-7.9230950000000178
 21
-13.611525000000029
  0
LINE
  8
_0-1_
  6
CONTINUOUS
 62
    2
 10
-7.9230950000000178
 20
-13.611525000000029
 11
-13.252639999999971
 21
-5.1500850000000753
  0
ARC
  8
_0-1_
  6
CONTINUOUS
 62
    2
 10
-5.9111699999999701
 20
-9.3759749999999542
 40
3
 50
200.705276
 51
290.70527600000003
  0
ARC
  8
_0-1_
  6
CONTINUOUS
 62
    2
 10
-5.620244999999997
 20
-8.7314899999999795
 40
1
 50
200.705276
 51
290.70527600000003
  0
ARC
  8
_0-1_
  6
CONTINUOUS
 62
    2
 10
-3.5837649999999854
 20
-4.2200850000000401
 40
3
 50
20.705276000000001
 51
110.70527600000001
  0
ARC
  8
_0-1_
  6
CONTINUOUS
 62
    2
 10
-7.3254099999999767
 20
-5.634330000000034
 40
3
 50
110.705276
 51
200.70527599999997
  0
LINE
  8
_0-1_
  6
CONTINUOUS
 62
    2
 10
-13.252639999999971
 20
-5.1500850000000753
 11
-20.444864999999979
 21
-9.6801949999999692
  0
LINE
  8
_0-1_
  6
CONTINUOUS
 62
    2
 10
-10.13164500000002
 20
-6.6950099999999679
 11
-9.2477449999999806
 21
-9.0335400000000732
  0
LINE
  8
_0-1_
  6
CONTINUOUS
 62
    2
 10
-9.2477449999999806
 20
-9.0335400000000732
 11
-4.5706849999999832
 21
-7.2657350000000065
  0
LINE
  8
_0-1_
  6
CONTINUOUS
 62
    2
 10
-4.5706849999999832
 20
-7.2657350000000065
 11
-5.2778099999999739
 21
-5.3949099999999817
  0
LINE
  8
_0-1_
  6
CONTINUOUS
 62
    2
 10
-5.2778099999999739
 20
-5.3949099999999817
 11
-7.6163350000000207
 21
-6.2788150000000087
  0
LINE
  8
_0-1_
  6
CONTINUOUS
 62
    2
 10
-7.0344850000000037
 20
-4.989840000000072
 11
-4.2282499999999601
 21
-3.929159999999996
  0
LINE
  8
_0-1_
  6
CONTINUOUS
 62
    2
 10
-2.9392800000000108
 20
-4.5110100000000841
 11
-1.8785950000000184
 21
-7.3172449999999856
  0
LINE
  8
_0-1_
  6
CONTINUOUS
 62
    2
 10
-2.4604500000000229
 20
-8.606215000000077
 11
-5.266680000000008
 21
-9.6668999999999983
  0
LINE
  8
_0-1_
  6
CONTINUOUS
 62
    2
 10
-6.5556550000000158
 20
-9.0850500000000523
 11
-6.7324349999999811
 21
-8.6173449999999718
  0
LINE
  8
_0-1_
  6
CONTINUOUS
 62
    2
 10
-6.7324349999999811
 20
-8.6173449999999718
 11
-9.0709650000000153
 21
-9.5012450000000115
  0
LINE
  8
_0-1_
  6
CONTINUOUS
 62
    2
 10
-9.0709650000000153
 20
-9.5012450000000115
 11
-8.7174050000000136
 21
-10.43665500000003
  0
LINE
  8
_0-1_
  6
CONTINUOUS
 62
    2
 10
-29.904549999999972
 20
-17.818120000000022
 11
-27.717829999999992
 21
-15.764275000000083
  0
LINE
  8
_0-1_
  6
CONTINUOUS
 62
    2
 10
-23.058405000000022
 20
-25.107174999999984
 11
-21.236139999999963
 21
-23.395639999999958
  0
LINE
  8
_0-1_
  6
CONTINUOUS
 62
    2
 10
-21.236139999999963
 20
-23.395639999999958
 11
-25.686134999999979
 21
-18.657749999999993
  0
LINE
  8
_0-1_
  6
CONTINUOUS
 62
    2
 10
-17.956064999999981
 20
-20.314874999999972
 11
-25.686134999999979
 21
-18.657749999999993
  0
LINE
  8
_0-1_
  6
CONTINUOUS
 62
    2
 10
-17.956064999999981
 20
-20.314874999999972
 11
-15.769349999999989
 21
-18.261030000000034
  0
LINE
  8
_0-1_
  6
CONTINUOUS
 62
    2
 10
-15.769349999999989
 20
-18.261030000000034
 11
-22.615490000000023
 21
-10.971975000000072
  0
LINE
  8
_0-1_
  6
CONTINUOUS
 62
    2
 10
-22.615490000000023
 20
-10.971975000000072
 11
-24.43775500000001
 21
-12.683509999999956
  0
LINE
  8
_0-1_
  6
CONTINUOUS
 62
    2
 10
-24.43775500000001
 20
-12.683509999999956
 11
-19.987764999999982
 21
-17.421400000000062
  0
LINE
  8
_0-1_
  6
CONTINUOUS
 62
    2
 10
-20.444864999999979
 20
-9.6801949999999692
 11
-19.112480000000005
 21
-11.795555000000064
  0
ENDBLK
  0
ENDSEC
  0
SECTION
  2
ENTITIES
  0
LINE
  8
_0-2_
  6
CONTINUOUS
 62
    7
 10
820.00000000000011
 20
965
 11
220
 21
965
  0
LINE
  8
_0-f_
  6
CONTINUOUS
 62
    3
 10
50
 20
50
 11
2050
 21
50
  0
LINE
  8
_0-f_
  6
CONTINUOUS
 62
    3
 10
2050
 20
50
 11
2050
 21
1435
  0
LINE
  8
_0-f_
  6
CONTINUOUS
 62
    3
 10
2050
 20
1435
 11
50
 21
1435
  0
LINE
  8
_0-f_
  6
CONTINUOUS
 62
    3
 10
50
 20
1435
 11
50
 21
50
  0
LINE
  8
_0-f_
  6
CONTINUOUS
 62
    7
 10
1100
 20
95
 11
2050
 21
95
  0
LINE
  8
_0-f_
  6
CONTINUOUS
 62
    7
 10
1100
 20
185
 11
2050
 21
185
  0
LINE
  8
_0-f_
  6
CONTINUOUS
 62
    7
 10
1100
 20
50
 11
1100
 21
230
  0
LINE
  8
_0-f_
  6
CONTINUOUS
 62
    7
 10
1100
 20
230
 11
2050
 21
230
  0
LINE
  8
_0-f_
  6
CONTINUOUS
 62
    7
 10
1965
 20
50
 11
1965
 21
95
  0
LINE
  8
_0-f_
  6
CONTINUOUS
 62
    7
 10
1575
 20
95
 11
1575
 21
230
  0
LINE
  8
_0-f_
  6
CONTINUOUS
 62
    7
 10
1925
 20
140
 11
1925
 21
230
  0
LINE
  8
_0-f_
  6
CONTINUOUS
 62
    7
 10
1300
 20
95
 11
1300
 21
185
  0
LINE
  8
_0-f_
  6
CONTINUOUS
 62
    7
 10
1200
 20
95
 11
1200
 21
185
  0
LINE
  8
_0-f_
  6
CONTINUOUS
 62
    7
 10
1400
 20
140
 11
2050
 21
140
  0
LINE
  8
_0-f_
  6
CONTINUOUS
 62
    7
 10
1400
 20
50
 11
1400
 21
185
  0
TEXT
  8
_0-f_
 62
    7
 10
1105
 20
210
 40
15
 41
0.6666666666666666
 50
0
  1
注
  0
TEXT
  8
_0-f_
 62
    7
 10
1580
 20
210
 40
15
 41
0.6666666666666666
 50
0
  1
材質　MATERIAL
  0
POINT
  8
_0-f_
 62
    9
 10
1135
 20
187.5
  0
POINT
  8
_0-f_
 62
    9
 10
1620
 20
187.5
  0
POINT
  8
_0-f_
 62
    9
 10
1580
 20
210
  0
TEXT
  8
_0-f_
 62
    7
 10
1930
 20
210
 40
15
 41
0.6666666666666666
 50
0
  1
個数　QUANTITY
  0
TEXT
  8
_0-f_
 62
    7
 10
1105
 20
165
 40
15
 41
0.6666666666666666
 50
0
  1
APPROVED
  0
TEXT
  8
_0-f_
 62
    7
 10
1205
 20
165
 40
15
 41
0.6666666666666666
 50
0
  1
CHECKED
  0
TEXT
  8
_0-f_
 62
    7
 10
1305
 20
165
 40
15
 41
0.6666666666666666
 50
0
  1
DESIGNER
  0
TEXT
  8
_0-f_
 62
    7
 10
1405
 20
165
 40
15
 41
0.6666666666666666
 50
0
  1
図面サイズ　SIZU
  0
TEXT
  8
_0-f_
 62
    7
 10
1405
 20
120
 40
15
 41
0.6666666666666666
 50
0
  1
日付　DATE
  0
TEXT
  8
_0-f_
 62
    7
 10
1580
 20
165
 40
15
 41
0.6666666666666666
 50
0
  1
表面処理　SURFACE TREATMENT
  0
TEXT
  8
_0-f_
 62
    7
 10
1930
 20
165
 40
15
 41
0.6666666666666666
 50
0
  1
尺度　SCALE
  0
TEXT
  8
_0-f_
 62
    7
 10
1405
 20
72.5
 40
17.5
 41
0.7142857142857143
 50
0
  1
図　　番
  0
TEXT
  8
_0-f_
 62
    7
 10
1467.5
 20
80
 40
10
 41
1
 50
0
  1
DRAWING No
  0
TEXT
  8
_0-f_
 62
    7
 10
1620
 20
187.5
 40
17.5
 41
1
 50
0
  1
別記
  0
TEXT
  8
_0-f_
 62
    7
 10
1595
 20
142.5
 40
17.5
 41
1
 50
0
  1
別記
  0
TEXT
  8
_0-f_
 62
    7
 10
1955
 20
187.5
 40
17.5
 41
1
 50
0
  1
別記
  0
TEXT
  8
_0-f_
 62
    7
 10
1970
 20
75
 40
15
 41
0.6666666666666666
 50
0
  1
ユニット
  0
TEXT
  8
_0-f_
 62
    7
 10
1325
 20
97.5
 40
25
 41
1
 50
0
  1
玉置
  0
TEXT
  8
_0-f_
 62
    7
 10
1195
 20
57.5
 40
30
 41
0.8333333333333333
 50
0
  1
株式会社アウス
  0
POINT
  8
_0-f_
 62
    9
 10
1150
 20
97.5
  0
POINT
  8
_0-f_
 62
    9
 10
1250
 20
97.5
  0
POINT
  8
_0-f_
 62
    9
 10
1350
 20
97.5
  0
POINT
  8
_0-f_
 62
    9
 10
1105
 20
165
  0
POINT
  8
_0-f_
 62
    9
 10
1205
 20
165
  0
POINT
  8
_0-f_
 62
    9
 10
1305
 20
165
  0
POINT
  8
_0-f_
 62
    9
 10
1405
 20
165
  0
POINT
  8
_0-f_
 62
    9
 10
1580
 20
165
  0
POINT
  8
_0-f_
 62
    9
 10
1595
 20
142.5
  0
POINT
  8
_0-f_
 62
    9
 10
1405
 20
72.5
  0
POINT
  8
_0-f_
 62
    9
 10
1195
 20
57.5
  0
POINT
  8
_0-f_
 62
    9
 10
1595
 20
52.5
  0
POINT
  8
_0-f_
 62
    9
 10
1595
 20
97.5
  0
POINT
  8
_0-f_
 62
    9
 10
1940
 20
142.5
  0
POINT
  8
_0-f_
 62
    9
 10
1930
 20
165
  0
POINT
  8
_0-f_
 62
    9
 10
1930
 20
210
  0
POINT
  8
_0-f_
 62
    9
 10
1955
 20
187.5
  0
POINT
  8
_0-f_
 62
    9
 10
1990
 20
52.5
  0
POINT
  8
_0-f_
 62
    9
 10
1970
 20
75
  0
POINT
  8
_0-f_
 62
    9
 10
1405
 20
120
  0
POINT
  8
_0-f_
 62
    9
 10
1487.5
 20
142.5
  0
POINT
  8
_0-f_
 62
    9
 10
1487.5
 20
97.5
  0
TEXT
  8
_0-f_
 62
    7
 10
1580
 20
122.5
 40
15
 41
0.6666666666666666
 50
0
  1
図面名　TITLE
  0
POINT
  8
_0-f_
 62
    9
 10
1580
 20
122.5
  0
TEXT
  8
_0-f_
 62
    7
 10
1135
 20
187.5
 40
17.5
 41
1
 50
0
  1
　
  0
TEXT
  8
_0-f_
 62
    7
 10
1470
 20
142.5
 40
17.5
 41
1
 50
0
  1
Ａ３
  0
TEXT
  8
_0-f_
 62
    7
 10
1940
 20
142.5
 40
17.5
 41
1
 50
0
  1
FREE
  0
LINE
  8
_0-1_
  6
CONTINUOUS
 62
    7
 10
236.00000000000009
 20
981
 11
236.00000000000009
 21
1249
  0
LINE
  8
_0-1_
  6
CONTINUOUS
 62
    7
 10
804
 20
981
 11
804
 21
1249
  0
LINE
  8
ADD_LINE
  6
DOT
 62
    9
 10
520.00000000000011
 20
1135
 11
520.00000000000011
 21
1133
  0
LINE
  8
_0-1_
  6
CONTINUOUS
 62
    7
 10
804
 20
1249
 11
236.00000000000009
 21
1249
  0
LINE
  8
_0-1_
  6
CONTINUOUS
 62
    7
 10
804
 20
981
 11
236.00000000000009
 21
981
  0
LINE
  8
_0-2_
  6
CONTINUOUS
 62
    7
 10
220
 20
1265
 11
235
 21
1250
  0
LINE
  8
_0-2_
  6
CONTINUOUS
 62
    7
 10
235
 20
980
 11
235
 21
1250
  0
LINE
  8
_0-2_
  6
CONTINUOUS
 62
    7
 10
220
 20
965
 11
235
 21
980
  0
LINE
  8
_0-2_
  6
CONTINUOUS
 62
    7
 10
220
 20
965
 11
220
 21
1265
  0
LINE
  8
_0-2_
  6
CONTINUOUS
 62
    7
 10
805.00000000000011
 20
980
 11
820.00000000000011
 21
965
  0
LINE
  8
_0-2_
  6
CONTINUOUS
 62
    7
 10
805.00000000000011
 20
1250
 11
820.00000000000011
 21
1265
  0
LINE
  8
_0-2_
  6
CONTINUOUS
 62
    7
 10
805.00000000000011
 20
980
 11
805.00000000000011
 21
1250
  0
LINE
  8
_0-2_
  6
CONTINUOUS
 62
    7
 10
820.00000000000011
 20
965
 11
820.00000000000011
 21
1265
  0
LINE
  8
_0-2_
  6
CONTINUOUS
 62
    7
 10
820.00000000000011
 20
1265
 11
220
 21
1265
  0
LINE
  8
_0-2_
  6
CONTINUOUS
 62
    7
 10
805.00000000000011
 20
1250
 11
235
 21
1250
  0
LINE
  8
_0-2_
  6
CONTINUOUS
 62
    7
 10
805.00000000000011
 20
980
 11
235
 21
980
  0
LINE
  8
_0-3_
  6
CONTINUOUS
 62
    7
 10
226.50000000000006
 20
1270
 11
226.50000000000006
 21
1280
  0
LINE
  8
_0-3_
  6
CONTINUOUS
 62
    7
 10
813.50000000000011
 20
1280
 11
226.50000000000006
 21
1280
  0
LINE
  8
_0-3_
  6
CONTINUOUS
 62
    7
 10
793.00000000000011
 20
950
 11
247.00000000000003
 21
950
  0
LINE
  8
_0-3_
  6
CONTINUOUS
 62
    7
 10
835.00000000000011
 20
1258.5
 11
826.49224137931037
 21
1258.5
  0
LINE
  8
_0-3_
  6
CONTINUOUS
 62
    7
 10
213.50775862068971
 20
1258.5
 11
205
 21
1258.5
  0
LINE
  8
_0-3_
  6
CONTINUOUS
 62
    7
 10
237.00000000000003
 20
960
 11
247.00000000000003
 21
950
  0
LINE
  8
_0-3_
  6
CONTINUOUS
 62
    7
 10
205
 20
991.99999999999989
 11
214.93760831889091
 21
982.06239168110915
  0
LINE
  8
_0-3_
  6
CONTINUOUS
 62
    7
 10
793.00000000000011
 20
950
 11
803.00000000000011
 21
960
  0
LINE
  8
_0-3_
  6
CONTINUOUS
 62
    7
 10
825.06239168110926
 20
982.06239168110915
 11
835.00000000000011
 21
991.99999999999989
  0
LINE
  8
_0-3_
  6
CONTINUOUS
 62
    7
 10
813.50000000000011
 20
1270
 11
813.50000000000011
 21
1280
  0
LINE
  8
_0-3_
  6
CONTINUOUS
 62
    7
 10
205
 20
1165
 11
205
 21
1258.5
  0
LINE
  8
_0-3_
  6
CONTINUOUS
 62
    7
 10
214.09482758620683
 20
1165
 11
205
 21
1165
  0
LINE
  8
_0-3_
  6
CONTINUOUS
 62
    7
 10
214.40517241379311
 20
1065
 11
205
 21
1065
  0
LINE
  8
_0-3_
  6
CONTINUOUS
 62
    7
 10
205
 20
991.99999999999989
 11
205
 21
1065
  0
LINE
  8
_0-3_
  6
CONTINUOUS
 62
    7
 10
835.00000000000011
 20
1165
 11
825.90517241379314
 21
1165
  0
LINE
  8
_0-3_
  6
CONTINUOUS
 62
    7
 10
835.00000000000011
 20
1165
 11
835.00000000000011
 21
1258.5
  0
LINE
  8
_0-3_
  6
CONTINUOUS
 62
    7
 10
835.00000000000011
 20
1065
 11
825.59482758620686
 21
1065
  0
LINE
  8
_0-3_
  6
CONTINUOUS
 62
    7
 10
835.00000000000011
 20
991.99999999999989
 11
835.00000000000011
 21
1065
  0
LINE
  8
_0-4_
  6
CONTINUOUS
 62
    7
 10
815.00000000000011
 20
960
 11
225
 21
960
  0
LINE
  8
_0-4_
  6
CONTINUOUS
 62
    7
 10
825.00000000000011
 20
970
 11
826.5
 21
1260
  0
LINE
  8
_0-4_
  6
CONTINUOUS
 62
    7
 10
825.00000000000011
 20
970
 11
820.00000000000011
 21
970
  0
LINE
  8
_0-4_
  6
CONTINUOUS
 62
    7
 10
826.5
 20
1260
 11
820.00000000000011
 21
1260
  0
LINE
  8
_0-4_
  6
CONTINUOUS
 62
    7
 10
816.5
 20
1265
 11
816.5
 21
1270
  0
LINE
  8
_0-4_
  6
CONTINUOUS
 62
    7
 10
815.00000000000011
 20
960
 11
815.00000000000011
 21
965
  0
LINE
  8
_0-4_
  6
CONTINUOUS
 62
    7
 10
816.5
 20
1270
 11
223.50000000000009
 21
1270
  0
LINE
  8
_0-4_
  6
CONTINUOUS
 62
    7
 10
213.50000000000009
 20
1260
 11
215
 21
970
  0
LINE
  8
_0-4_
  6
CONTINUOUS
 62
    7
 10
220
 20
1260
 11
213.50000000000009
 21
1260
  0
LINE
  8
_0-4_
  6
CONTINUOUS
 62
    7
 10
223.50000000000009
 20
1265
 11
223.50000000000009
 21
1270
  0
LINE
  8
_0-4_
  6
CONTINUOUS
 62
    7
 10
220
 20
970
 11
215
 21
970
  0
LINE
  8
_0-4_
  6
CONTINUOUS
 62
    7
 10
225
 20
960
 11
225
 21
965
  0
INSERT
  2
-000-BLK17
  8
_0-6_
 10
540.42614300000014
 20
1026.1346979999998
 41
0.2
 42
0.2
 50
0
  0
CIRCLE
  8
_0-6_
  6
CONTINUOUS
 62
    7
 10
543.59923100000015
 20
1014.044143
 40
14.000000000000002
  0
CIRCLE
  8
_0-6_
  6
CONTINUOUS
 62
    7
 10
543.59923100000015
 20
1014.044143
 40
15
  0
ARC
  8
_0-6_
  6
CONTINUOUS
 62
    7
 10
520.00000000000011
 20
1011
 40
5
 50
300
 51
60.000000000000007
  0
LINE
  8
_0-6_
  6
CONTINUOUS
 62
    7
 10
522.50000000000011
 20
1018.5993429999999
 11
522.50000000000011
 21
1015.3301269999998
  0
ARC
  8
_0-6_
  6
CONTINUOUS
 62
    7
 10
520.00000000000011
 20
1011
 40
8
 50
71.790043000000011
 51
108.20995700000002
  0
LINE
  8
_0-6_
  6
CONTINUOUS
 62
    7
 10
517.50000000000011
 20
1018.5993429999999
 11
517.50000000000011
 21
1015.3301269999998
  0
ARC
  8
_0-6_
  6
CONTINUOUS
 62
    7
 10
520.00000000000011
 20
1011
 40
5
 50
119.99999999999999
 51
239.99999999999997
  0
ARC
  8
_0-6_
  6
CONTINUOUS
 62
    7
 10
520.00000000000011
 20
1011
 40
14.000000000000002
 50
43.615569999999998
 51
150.11330699999999
  0
LINE
  8
_0-6_
  6
CONTINUOUS
 62
    7
 10
506.73350100000005
 20
1018
 11
507.86182500000007
 21
1017.9760099999999
  0
ARC
  8
_0-6_
  6
CONTINUOUS
 62
    7
 10
520.00000000000011
 20
1011
 40
15
 50
152.181861
 51
329.83186000000001
  0
LINE
  8
_0-6_
  6
CONTINUOUS
 62
    7
 10
522.50000000000011
 20
1006.6698730000001
 11
522.50000000000011
 21
1003.4006579999999
  0
LINE
  8
_0-6_
  6
CONTINUOUS
 62
    7
 10
517.50000000000011
 20
1006.6698730000001
 11
517.50000000000011
 21
1003.4006579999999
  0
ARC
  8
_0-6_
  6
CONTINUOUS
 62
    7
 10
520.00000000000011
 20
1011
 40
8
 50
251.79004300000003
 51
288.20995699999997
  0
TEXT
  8
_0-1_
 62
    7
 10
430.00000000000006
 20
1108.5999999999999
 40
36
 41
1
 50
0
  1
電　磁　弁
  0
LINE
  8
_0-2_
  6
CONTINUOUS
 62
    7
 10
820.00000000000011
 20
744
 11
820.00000000000011
 21
741
  0
LINE
  8
_0-2_
  6
CONTINUOUS
 62
    7
 10
820.00000000000011
 20
741
 11
520.00000000000011
 21
741
  0
LINE
  8
_0-3_
  6
CONTINUOUS
 62
    7
 10
816.5
 20
739.5
 11
816.00000000000011
 21
739.5
  0
ARC
  8
_0-3_
  6
CONTINUOUS
 62
    7
 10
813.50000000000011
 20
739.5
 40
1.5000000000000002
 50
0
 51
90
  0
LINE
  8
_0-3_
  6
CONTINUOUS
 62
    7
 10
815.00000000000011
 20
739.5
 11
815.00000000000011
 21
445.5
  0
LINE
  8
_0-3_
  6
CONTINUOUS
 62
    7
 10
835.00000000000011
 20
445.5
 11
815.00000000000011
 21
445.5
  0
LINE
  8
_0-3_
  6
CONTINUOUS
 62
    7
 10
835.00000000000011
 20
445.5
 11
835.00000000000011
 21
443.99999999999989
  0
LINE
  8
_0-3_
  6
CONTINUOUS
 62
    7
 10
815.00000000000011
 20
443.99999999999989
 11
835.00000000000011
 21
443.99999999999989
  0
ARC
  8
_0-3_
  6
CONTINUOUS
 62
    7
 10
815.00000000000011
 20
445.5
 40
1.5000000000000002
 50
180
 51
270
  0
LINE
  8
_0-3_
  6
CONTINUOUS
 62
    7
 10
813.50000000000011
 20
447
 11
816.5
 21
447
  0
LINE
  8
_0-3_
  6
CONTINUOUS
 62
    7
 10
813.50000000000011
 20
443.99999999999989
 11
813.50000000000011
 21
447
  0
LINE
  8
_0-3_
  6
CONTINUOUS
 62
    7
 10
813.50000000000011
 20
739.5
 11
813.50000000000011
 21
741
  0
LINE
  8
_0-3_
  6
CONTINUOUS
 62
    7
 10
815.00000000000011
 20
739.5
 11
813.50000000000011
 21
739.5
  0
LINE
  8
_0-3_
  6
CONTINUOUS
 62
    7
 10
816.5
 20
568.99999999999989
 11
816.5
 21
447
  0
LINE
  8
_0-3_
  6
CONTINUOUS
 62
    7
 10
816.5
 20
739.5
 11
816.5
 21
618.99999999999989
  0
LINE
  8
_0-3_
  6
DASHED2
 62
    4
 10
813.50000000000011
 20
447
 11
813.50000000000011
 21
568.99999999999989
  0
LINE
  8
_0-4_
  6
CONTINUOUS
 62
    7
 10
815.00000000000011
 20
568.99999999999989
 11
815.00000000000011
 21
618.99999999999989
  0
LINE
  8
_0-4_
  6
CONTINUOUS
 62
    7
 10
818.00000000000011
 20
618.99999999999989
 11
815.00000000000011
 21
618.99999999999989
  0
LINE
  8
_0-4_
  6
CONTINUOUS
 62
    7
 10
818.00000000000011
 20
568.99999999999989
 11
815.00000000000011
 21
568.99999999999989
  0
ARC
  8
_0-4_
  6
CONTINUOUS
 62
    7
 10
816.5
 20
610.5
 40
1.5000000000000002
 50
180
 51
270
  0
ARC
  8
_0-4_
  6
CONTINUOUS
 62
    7
 10
823.50000000000011
 20
608.99999999999989
 40
1.5000000000000002
 50
0
 51
90.000000000000014
  0
ARC
  8
_0-4_
  6
CONTINUOUS
 62
    7
 10
825.00000000000011
 20
608.99999999999989
 40
1.5000000000000002
 50
0
 51
90.000000000000014
  0
ARC
  8
_0-4_
  6
CONTINUOUS
 62
    7
 10
823.50000000000011
 20
578.99999999999989
 40
1.5000000000000002
 50
270
 51
0
  0
ARC
  8
_0-4_
  6
CONTINUOUS
 62
    7
 10
816.5
 20
577.5
 40
1.5000000000000002
 50
90
 51
180
  0
ARC
  8
_0-4_
  6
CONTINUOUS
 62
    7
 10
825.00000000000011
 20
578.99999999999989
 40
1.5000000000000002
 50
270
 51
0
  0
LINE
  8
_0-4_
  6
CONTINUOUS
 62
    7
 10
816.5
 20
618.99999999999989
 11
816.5
 21
610.5
  0
LINE
  8
_0-4_
  6
CONTINUOUS
 62
    7
 10
816.5
 20
608.99999999999989
 11
823.50000000000011
 21
608.99999999999989
  0
LINE
  8
_0-4_
  6
CONTINUOUS
 62
    7
 10
823.50000000000011
 20
608.99999999999989
 11
823.50000000000011
 21
578.99999999999989
  0
LINE
  8
_0-4_
  6
CONTINUOUS
 62
    7
 10
816.5
 20
578.99999999999989
 11
823.50000000000011
 21
578.99999999999989
  0
LINE
  8
_0-4_
  6
CONTINUOUS
 62
    7
 10
816.5
 20
577.5
 11
816.5
 21
568.99999999999989
  0
LINE
  8
_0-4_
  6
CONTINUOUS
 62
    7
 10
818.00000000000011
 20
618.99999999999989
 11
818.00000000000011
 21
610.5
  0
LINE
  8
_0-4_
  6
CONTINUOUS
 62
    7
 10
818.00000000000011
 20
577.5
 11
818.00000000000011
 21
568.99999999999989
  0
LINE
  8
_0-4_
  6
CONTINUOUS
 62
    7
 10
825.00000000000011
 20
578.99999999999989
 11
825.00000000000011
 21
608.99999999999989
  0
LINE
  8
_0-4_
  6
CONTINUOUS
 62
    7
 10
826.5
 20
578.99999999999989
 11
826.5
 21
608.99999999999989
  0
LINE
  8
_0-4_
  6
CONTINUOUS
 62
    7
 10
825.00000000000011
 20
577.5
 11
816.5
 21
577.5
  0
LINE
  8
_0-4_
  6
CONTINUOUS
 62
    7
 10
825.00000000000011
 20
610.5
 11
816.5
 21
610.5
  0
LINE
  8
_0-5_
  6
CONTINUOUS
 62
    7
 10
816.00000000000011
 20
740
 11
816.00000000000011
 21
732
  0
LINE
  8
_0-5_
  6
CONTINUOUS
 62
    7
 10
816.00000000000011
 20
740
 11
815.00000000000011
 21
740
  0
LINE
  8
_0-5_
  6
CONTINUOUS
 62
    7
 10
816.00000000000011
 20
732
 11
815.00000000000011
 21
732
  0
LINE
  8
_0-6_
  6
CONTINUOUS
 62
    7
 10
535.00000000000011
 20
749
 11
535.00000000000011
 21
744
  0
LINE
  8
_0-6_
  6
CONTINUOUS
 62
    7
 10
506.00000000000011
 20
750
 11
534
 21
750
  0
LINE
  8
_0-6_
  6
CONTINUOUS
 62
    7
 10
505.00000000000006
 20
744
 11
505.00000000000006
 21
749
  0
LINE
  8
_0-6_
  6
CONTINUOUS
 62
    7
 10
535.00000000000011
 20
749
 11
505.00000000000006
 21
749
  0
LINE
  8
_0-6_
  6
CONTINUOUS
 62
    7
 10
535.00000000000011
 20
744
 11
505.00000000000006
 21
744
  0
LINE
  8
_0-6_
  6
CONTINUOUS
 62
    7
 10
534
 20
750
 11
535.00000000000011
 21
749
  0
LINE
  8
_0-6_
  6
CONTINUOUS
 62
    7
 10
505.00000000000006
 20
749
 11
506.00000000000011
 21
750
  0
LINE
  8
_0-6_
  6
CONTINUOUS
 62
    7
 10
534.91735995562965
 20
747
 11
505.00000000000006
 21
747
  0
LINE
  8
_0-0_
  6
CONTINUOUS
 62
    2
 10
1200
 20
523.99999999999989
 11
1202
 21
523.99999999999989
  0
LINE
  8
_0-2_
  6
CONTINUOUS
 62
    7
 10
1050
 20
744
 11
1050
 21
741
  0
LINE
  8
_0-2_
  6
CONTINUOUS
 62
    7
 10
1350
 20
744
 11
1350
 21
741
  0
LINE
  8
_0-2_
  6
CONTINUOUS
 62
    7
 10
1050
 20
744
 11
1350
 21
744
  0
LINE
  8
_0-2_
  6
CONTINUOUS
 62
    7
 10
1050
 20
741
 11
1350
 21
741
  0
ARC
  8
_0-3_
  6
CONTINUOUS
 62
    7
 10
1056.5
 20
739.5
 40
1.5000000000000002
 50
90
 51
180
  0
LINE
  8
_0-3_
  6
CONTINUOUS
 62
    7
 10
1055
 20
739.5
 11
1056.5
 21
739.5
  0
LINE
  8
_0-3_
  6
CONTINUOUS
 62
    7
 10
1056.5
 20
741
 11
1056.5
 21
739.5
  0
LINE
  8
_0-3_
  6
CONTINUOUS
 62
    7
 10
1035
 20
445.5
 11
1035
 21
443.99999999999989
  0
LINE
  8
_0-3_
  6
CONTINUOUS
 62
    7
 10
1035
 20
445.5
 11
1055
 21
445.5
  0
LINE
  8
_0-3_
  6
CONTINUOUS
 62
    7
 10
1055
 20
739.5
 11
1055
 21
445.5
  0
LINE
  8
_0-3_
  6
CONTINUOUS
 62
    7
 10
1055
 20
443.99999999999989
 11
1035
 21
443.99999999999989
  0
ARC
  8
_0-3_
  6
CONTINUOUS
 62
    7
 10
1055
 20
445.5
 40
1.5000000000000002
 50
270
 51
0
  0
LINE
  8
_0-3_
  6
CONTINUOUS
 62
    7
 10
1055
 20
447
 11
1056.5
 21
447
  0
LINE
  8
_0-3_
  6
CONTINUOUS
 62
    7
 10
1056.5
 20
443.99999999999989
 11
1056.5
 21
447
  0
LINE
  8
_0-3_
  6
CONTINUOUS
 62
    7
 10
1250
 20
473.99999999999989
 11
1250
 21
443.99999999999989
  0
ARC
  8
_0-3_
  6
CONTINUOUS
 62
    7
 10
1200
 20
473.99999999999989
 40
50
 50
0
 51
90
  0
LINE
  8
_0-3_
  6
CONTINUOUS
 62
    7
 10
1150
 20
473.99999999999989
 11
1150
 21
443.99999999999989
  0
ARC
  8
_0-3_
  6
CONTINUOUS
 62
    7
 10
1200
 20
473.99999999999989
 40
50
 50
90
 51
180
  0
LINE
  8
_0-3_
  6
CONTINUOUS
 62
    7
 10
1345
 20
741
 11
1345
 21
445.5
  0
LINE
  8
_0-3_
  6
CONTINUOUS
 62
    7
 10
1345
 20
445.5
 11
1365
 21
445.5
  0
LINE
  8
_0-3_
  6
CONTINUOUS
 62
    7
 10
1365
 20
445.5
 11
1365
 21
443.99999999999989
  0
LINE
  8
_0-3_
  6
CONTINUOUS
 62
    7
 10
1345
 20
443.99999999999989
 11
1365
 21
443.99999999999989
  0
ARC
  8
_0-3_
  6
CONTINUOUS
 62
    7
 10
1345
 20
445.5
 40
1.5000000000000002
 50
180
 51
270
  0
LINE
  8
_0-3_
  6
CONTINUOUS
 62
    7
 10
1335
 20
447
 11
1345
 21
447
  0
LINE
  8
_0-3_
  6
CONTINUOUS
 62
    7
 10
1343.5
 20
443.99999999999989
 11
1343.5
 21
447
  0
LINE
  8
_0-3_
  6
CONTINUOUS
 62
    7
 10
1335
 20
741
 11
1335
 21
618.99999999999989
  0
LINE
  8
_0-3_
  6
CONTINUOUS
 62
    7
 10
1335
 20
568.99999999999989
 11
1335
 21
447
  0
LINE
  8
_0-3_
  6
CONTINUOUS
 62
    7
 10
1250
 20
445.5
 11
1343.5
 21
445.5
  0
LINE
  8
_0-3_
  6
CONTINUOUS
 62
    7
 10
1250
 20
443.99999999999989
 11
1343.5
 21
443.99999999999989
  0
LINE
  8
_0-3_
  6
CONTINUOUS
 62
    7
 10
1056.5
 20
445.5
 11
1150
 21
445.5
  0
LINE
  8
_0-3_
  6
CONTINUOUS
 62
    7
 10
1056.5
 20
443.99999999999989
 11
1150
 21
443.99999999999989
  0
LINE
  8
_0-3_
  6
CONTINUOUS
 62
    7
 10
1056.5
 20
741
 11
1345
 21
741
  0
LINE
  8
_0-4_
  6
CONTINUOUS
 62
    7
 10
1053.5
 20
568.99999999999989
 11
1055
 21
568.99999999999989
  0
LINE
  8
_0-4_
  6
CONTINUOUS
 62
    7
 10
1053.5
 20
618.99999999999989
 11
1055
 21
618.99999999999989
  0
LINE
  8
_0-4_
  6
CONTINUOUS
 62
    7
 10
1346.5
 20
618.99999999999989
 11
1345
 21
618.99999999999989
  0
LINE
  8
_0-4_
  6
CONTINUOUS
 62
    7
 10
1346.5
 20
568.99999999999989
 11
1345
 21
568.99999999999989
  0
LINE
  8
_0-4_
  6
CONTINUOUS
 62
    7
 10
1345
 20
618.99999999999989
 11
1055
 21
618.99999999999989
  0
LINE
  8
_0-4_
  6
CONTINUOUS
 62
    7
 10
1345
 20
568.99999999999989
 11
1055
 21
568.99999999999989
  0
ARC
  8
_0-4_
  6
CONTINUOUS
 62
    7
 10
1046.5
 20
608.99999999999989
 40
1.5000000000000002
 50
90
 51
180
  0
ARC
  8
_0-4_
  6
CONTINUOUS
 62
    7
 10
1053.5
 20
610.5
 40
1.5000000000000002
 50
270
 51
0
  0
ARC
  8
_0-4_
  6
CONTINUOUS
 62
    7
 10
1346.5
 20
610.5
 40
1.5000000000000002
 50
180
 51
270
  0
ARC
  8
_0-4_
  6
CONTINUOUS
 62
    7
 10
1353.5
 20
608.99999999999989
 40
1.5000000000000002
 50
0
 51
90.000000000000014
  0
LINE
  8
_0-4_
  6
CONTINUOUS
 62
    7
 10
1345
 20
610.5
 11
1055
 21
610.5
  0
ARC
  8
_0-4_
  6
CONTINUOUS
 62
    7
 10
1046.5
 20
578.99999999999989
 40
1.5000000000000002
 50
180
 51
270
  0
ARC
  8
_0-4_
  6
CONTINUOUS
 62
    7
 10
1053.5
 20
577.5
 40
1.5000000000000002
 50
0
 51
90
  0
ARC
  8
_0-4_
  6
CONTINUOUS
 62
    7
 10
1353.5
 20
578.99999999999989
 40
1.5000000000000002
 50
270
 51
0
  0
ARC
  8
_0-4_
  6
CONTINUOUS
 62
    7
 10
1346.5
 20
577.5
 40
1.5000000000000002
 50
90
 51
180
  0
LINE
  8
_0-4_
  6
CONTINUOUS
 62
    7
 10
1345
 20
577.5
 11
1055
 21
577.5
  0
LINE
  8
_0-4_
  6
CONTINUOUS
 62
    7
 10
1346.5
 20
618.99999999999989
 11
1346.5
 21
610.5
  0
LINE
  8
_0-4_
  6
CONTINUOUS
 62
    7
 10
1353.5
 20
610.5
 11
1346.5
 21
610.5
  0
LINE
  8
_0-4_
  6
CONTINUOUS
 62
    7
 10
1346.5
 20
608.99999999999989
 11
1353.5
 21
608.99999999999989
  0
LINE
  8
_0-4_
  6
CONTINUOUS
 62
    7
 10
1353.5
 20
608.99999999999989
 11
1353.5
 21
578.99999999999989
  0
LINE
  8
_0-4_
  6
CONTINUOUS
 62
    7
 10
1346.5
 20
578.99999999999989
 11
1353.5
 21
578.99999999999989
  0
LINE
  8
_0-4_
  6
CONTINUOUS
 62
    7
 10
1353.5
 20
577.5
 11
1346.5
 21
577.5
  0
LINE
  8
_0-4_
  6
CONTINUOUS
 62
    7
 10
1346.5
 20
577.5
 11
1346.5
 21
568.99999999999989
  0
LINE
  8
_0-4_
  6
CONTINUOUS
 62
    7
 10
1345
 20
618.99999999999989
 11
1345
 21
568.99999999999989
  0
LINE
  8
_0-4_
  6
CONTINUOUS
 62
    7
 10
1355
 20
578.99999999999989
 11
1355
 21
608.99999999999989
  0
LINE
  8
_0-4_
  6
CONTINUOUS
 62
    7
 10
1053.5
 20
610.5
 11
1053.5
 21
618.99999999999989
  0
LINE
  8
_0-4_
  6
CONTINUOUS
 62
    7
 10
1046.5
 20
610.5
 11
1053.5
 21
610.5
  0
LINE
  8
_0-4_
  6
CONTINUOUS
 62
    7
 10
1053.5
 20
608.99999999999989
 11
1046.5
 21
608.99999999999989
  0
LINE
  8
_0-4_
  6
CONTINUOUS
 62
    7
 10
1046.5
 20
578.99999999999989
 11
1046.5
 21
608.99999999999989
  0
LINE
  8
_0-4_
  6
CONTINUOUS
 62
    7
 10
1053.5
 20
578.99999999999989
 11
1046.5
 21
578.99999999999989
  0
LINE
  8
_0-4_
  6
CONTINUOUS
 62
    7
 10
1046.5
 20
577.5
 11
1053.5
 21
577.5
  0
LINE
  8
_0-4_
  6
CONTINUOUS
 62
    7
 10
1053.5
 20
568.99999999999989
 11
1053.5
 21
577.5
  0
LINE
  8
_0-4_
  6
CONTINUOUS
 62
    7
 10
1055
 20
618.99999999999989
 11
1055
 21
568.99999999999989
  0
LINE
  8
_0-4_
  6
CONTINUOUS
 62
    7
 10
1045
 20
608.99999999999989
 11
1045
 21
578.99999999999989
  0
CIRCLE
  8
_0-5_
  6
CONTINUOUS
 62
    7
 10
1313.0001806443627
 20
736
 40
4
  0
LINE
  8
_0-6_
  6
CONTINUOUS
 62
    7
 10
1116
 20
749
 11
1116
 21
744
  0
LINE
  8
_0-6_
  6
CONTINUOUS
 62
    7
 10
1087
 20
750
 11
1115
 21
750
  0
LINE
  8
_0-6_
  6
CONTINUOUS
 62
    7
 10
1116
 20
745.29999999999995
 11
1108.5
 21
745.29999999999995
  0
LINE
  8
_0-6_
  6
CONTINUOUS
 62
    7
 10
1108.5
 20
747
 11
1108.5
 21
745.29999999999995
  0
LINE
  8
_0-6_
  6
CONTINUOUS
 62
    7
 10
1108.5
 20
747
 11
1086
 21
747
  0
LINE
  8
_0-6_
  6
CONTINUOUS
 62
    7
 10
1086
 20
744
 11
1086
 21
749
  0
LINE
  8
_0-6_
  6
CONTINUOUS
 62
    7
 10
1116
 20
749
 11
1086
 21
749
  0
LINE
  8
_0-6_
  6
CONTINUOUS
 62
    7
 10
1116
 20
744
 11
1086
 21
744
  0
LINE
  8
_0-6_
  6
CONTINUOUS
 62
    7
 10
1108
 20
747
 11
1108
 21
744
  0
LINE
  8
_0-6_
  6
CONTINUOUS
 62
    7
 10
1115
 20
750
 11
1116
 21
749
  0
LINE
  8
_0-6_
  6
CONTINUOUS
 62
    7
 10
1086
 20
749
 11
1087
 21
750
  0
LINE
  8
_0-0_
  6
CONTINUOUS
 62
    2
 10
236.00000000000009
 20
1315
 11
250.48888739433607
 21
1318.8822856765378
  0
LINE
  8
_0-0_
  6
CONTINUOUS
 62
    2
 10
236.00000000000009
 20
1315
 11
250.48888739433607
 21
1311.1177143234622
  0
LINE
  8
_0-0_
  6
CONTINUOUS
 62
    2
 10
804
 20
1315
 11
789.51111260566404
 21
1318.8822856765378
  0
LINE
  8
_0-0_
  6
CONTINUOUS
 62
    2
 10
804
 20
1315
 11
789.51111260566404
 21
1311.1177143234622
  0
LINE
  8
_0-0_
  6
CONTINUOUS
 62
    2
 10
236.00000000000009
 20
1320
 11
236.00000000000009
 21
1254
  0
LINE
  8
_0-0_
  6
CONTINUOUS
 62
    2
 10
804
 20
1320
 11
804
 21
1254
  0
LINE
  8
_0-0_
  6
CONTINUOUS
 62
    2
 10
236.00000000000009
 20
1315
 11
804
 21
1315
  0
TEXT
  8
_0-0_
 62
    7
 10
500.00000000000006
 20
1317.5
 40
25
 41
1
 50
0
  1
568
  0
LINE
  8
_0-0_
  6
CONTINUOUS
 62
    2
 10
220
 20
1350
 11
234.48888739433599
 21
1353.8822856765378
  0
LINE
  8
_0-0_
  6
CONTINUOUS
 62
    2
 10
220
 20
1350
 11
234.48888739433599
 21
1346.1177143234622
  0
LINE
  8
_0-0_
  6
CONTINUOUS
 62
    2
 10
820.00000000000011
 20
1350
 11
805.51111260566415
 21
1353.8822856765378
  0
LINE
  8
_0-0_
  6
CONTINUOUS
 62
    2
 10
820.00000000000011
 20
1350
 11
805.51111260566415
 21
1346.1177143234622
  0
LINE
  8
_0-0_
  6
CONTINUOUS
 62
    2
 10
220
 20
1355
 11
220
 21
1270
  0
LINE
  8
_0-0_
  6
CONTINUOUS
 62
    2
 10
820.00000000000011
 20
1355
 11
820.00000000000011
 21
1270
  0
LINE
  8
_0-0_
  6
CONTINUOUS
 62
    2
 10
220
 20
1350
 11
820.00000000000011
 21
1350
  0
TEXT
  8
_0-0_
 62
    7
 10
500.00000000000006
 20
1352.5
 40
25
 41
1
 50
0
  1
600
  0
LINE
  8
_0-0_
  6
CONTINUOUS
 62
    2
 10
170
 20
981
 11
166.11771432346217
 21
995.48888739433596
  0
LINE
  8
_0-0_
  6
CONTINUOUS
 62
    2
 10
170
 20
981
 11
173.88228567653783
 21
995.48888739433596
  0
LINE
  8
_0-0_
  6
CONTINUOUS
 62
    2
 10
170
 20
1249
 11
166.11771432346217
 21
1234.511112605664
  0
LINE
  8
_0-0_
  6
CONTINUOUS
 62
    2
 10
170
 20
1249
 11
173.88228567653783
 21
1234.511112605664
  0
LINE
  8
_0-0_
  6
CONTINUOUS
 62
    2
 10
165
 20
981
 11
231.00000000000009
 21
981
  0
LINE
  8
_0-0_
  6
CONTINUOUS
 62
    2
 10
165
 20
1249
 11
231.00000000000009
 21
1249
  0
LINE
  8
_0-0_
  6
CONTINUOUS
 62
    2
 10
170
 20
981
 11
170
 21
1249
  0
TEXT
  8
_0-0_
 62
    7
 10
167.5
 20
1095
 40
25
 41
1
 50
90
  1
268
  0
LINE
  8
_0-0_
  6
CONTINUOUS
 62
    2
 10
135
 20
965
 11
131.11771432346217
 21
979.48888739433596
  0
LINE
  8
_0-0_
  6
CONTINUOUS
 62
    2
 10
135
 20
965
 11
138.88228567653783
 21
979.48888739433596
  0
LINE
  8
_0-0_
  6
CONTINUOUS
 62
    2
 10
135
 20
1265
 11
131.11771432346217
 21
1250.511112605664
  0
LINE
  8
_0-0_
  6
CONTINUOUS
 62
    2
 10
135
 20
1265
 11
138.88228567653783
 21
1250.511112605664
  0
LINE
  8
_0-0_
  6
CONTINUOUS
 62
    2
 10
130
 20
965
 11
215
 21
965
  0
LINE
  8
_0-0_
  6
CONTINUOUS
 62
    2
 10
130
 20
1265
 11
215
 21
1265
  0
LINE
  8
_0-0_
  6
CONTINUOUS
 62
    2
 10
135
 20
965
 11
135
 21
1265
  0
TEXT
  8
_0-0_
 62
    7
 10
132.5
 20
1095
 40
25
 41
1
 50
90
  1
300
  0
LINE
  8
_0-0_
  6
CONTINUOUS
 62
    2
 10
135
 20
443.99999999999989
 11
131.11771432346217
 21
458.4888873943359
  0
LINE
  8
_0-0_
  6
CONTINUOUS
 62
    2
 10
135
 20
443.99999999999989
 11
138.88228567653783
 21
458.4888873943359
  0
LINE
  8
_0-0_
  6
CONTINUOUS
 62
    2
 10
135
 20
744
 11
131.11771432346217
 21
729.51111260566404
  0
LINE
  8
_0-0_
  6
CONTINUOUS
 62
    2
 10
135
 20
744
 11
138.88228567653783
 21
729.51111260566404
  0
LINE
  8
_0-0_
  6
CONTINUOUS
 62
    2
 10
130
 20
443.99999999999989
 11
200
 21
443.99999999999989
  0
LINE
  8
_0-0_
  6
CONTINUOUS
 62
    2
 10
130
 20
744
 11
215
 21
744
  0
LINE
  8
_0-0_
  6
CONTINUOUS
 62
    2
 10
135
 20
443.99999999999989
 11
135
 21
744
  0
TEXT
  8
_0-0_
 62
    7
 10
132.5
 20
574
 40
25
 41
1
 50
90
  1
300
  0
LINE
  8
_0-3_
  6
CONTINUOUS
 62
    7
 10
223.49999999999994
 20
739.5
 11
224.00000000000006
 21
739.5
  0
ARC
  8
_0-3_
  6
CONTINUOUS
 62
    7
 10
226.50000000000006
 20
739.5
 40
1.5000000000000002
 50
90
 51
180
  0
LINE
  8
_0-3_
  6
CONTINUOUS
 62
    7
 10
225
 20
739.5
 11
225
 21
445.5
  0
LINE
  8
_0-3_
  6
CONTINUOUS
 62
    7
 10
205
 20
445.5
 11
225
 21
445.5
  0
LINE
  8
_0-3_
  6
CONTINUOUS
 62
    7
 10
205
 20
445.5
 11
205
 21
443.99999999999989
  0
LINE
  8
_0-3_
  6
CONTINUOUS
 62
    7
 10
225
 20
443.99999999999989
 11
205
 21
443.99999999999989
  0
ARC
  8
_0-3_
  6
CONTINUOUS
 62
    7
 10
225
 20
445.5
 40
1.5000000000000002
 50
270
 51
0
  0
LINE
  8
_0-3_
  6
CONTINUOUS
 62
    7
 10
226.50000000000006
 20
447
 11
223.49999999999994
 21
447
  0
LINE
  8
_0-3_
  6
CONTINUOUS
 62
    7
 10
226.50000000000006
 20
739.5
 11
226.50000000000006
 21
741
  0
LINE
  8
_0-3_
  6
CONTINUOUS
 62
    7
 10
225
 20
739.5
 11
226.50000000000006
 21
739.5
  0
LINE
  8
_0-3_
  6
CONTINUOUS
 62
    7
 10
223.49999999999994
 20
568.99999999999989
 11
223.49999999999994
 21
447
  0
LINE
  8
_0-3_
  6
CONTINUOUS
 62
    7
 10
223.49999999999994
 20
739.5
 11
223.49999999999994
 21
618.99999999999989
  0
LINE
  8
_0-4_
  6
CONTINUOUS
 62
    7
 10
225
 20
568.99999999999989
 11
225
 21
618.99999999999989
  0
LINE
  8
_0-4_
  6
CONTINUOUS
 62
    7
 10
221.99999999999989
 20
618.99999999999989
 11
225
 21
618.99999999999989
  0
LINE
  8
_0-4_
  6
CONTINUOUS
 62
    7
 10
221.99999999999989
 20
568.99999999999989
 11
225
 21
568.99999999999989
  0
ARC
  8
_0-4_
  6
CONTINUOUS
 62
    7
 10
223.49999999999994
 20
610.5
 40
1.5000000000000002
 50
270
 51
0
  0
ARC
  8
_0-4_
  6
CONTINUOUS
 62
    7
 10
216.50000000000006
 20
608.99999999999989
 40
1.5000000000000002
 50
89.999999999999986
 51
180
  0
ARC
  8
_0-4_
  6
CONTINUOUS
 62
    7
 10
215
 20
608.99999999999989
 40
1.5000000000000002
 50
89.999999999999986
 51
180
  0
ARC
  8
_0-4_
  6
CONTINUOUS
 62
    7
 10
216.50000000000006
 20
578.99999999999989
 40
1.5000000000000002
 50
180
 51
270
  0
ARC
  8
_0-4_
  6
CONTINUOUS
 62
    7
 10
223.49999999999994
 20
577.5
 40
1.5000000000000002
 50
0
 51
90
  0
ARC
  8
_0-4_
  6
CONTINUOUS
 62
    7
 10
215
 20
578.99999999999989
 40
1.5000000000000002
 50
180
 51
270
  0
LINE
  8
_0-4_
  6
CONTINUOUS
 62
    7
 10
223.49999999999994
 20
618.99999999999989
 11
223.49999999999994
 21
610.5
  0
LINE
  8
_0-4_
  6
CONTINUOUS
 62
    7
 10
223.49999999999994
 20
608.99999999999989
 11
216.50000000000006
 21
608.99999999999989
  0
LINE
  8
_0-4_
  6
CONTINUOUS
 62
    7
 10
216.50000000000006
 20
608.99999999999989
 11
216.50000000000006
 21
578.99999999999989
  0
LINE
  8
_0-4_
  6
CONTINUOUS
 62
    7
 10
223.49999999999994
 20
578.99999999999989
 11
216.50000000000006
 21
578.99999999999989
  0
LINE
  8
_0-4_
  6
CONTINUOUS
 62
    7
 10
223.49999999999994
 20
577.5
 11
223.49999999999994
 21
568.99999999999989
  0
LINE
  8
_0-4_
  6
CONTINUOUS
 62
    7
 10
221.99999999999989
 20
618.99999999999989
 11
221.99999999999989
 21
610.5
  0
LINE
  8
_0-4_
  6
CONTINUOUS
 62
    7
 10
221.99999999999989
 20
577.5
 11
221.99999999999989
 21
568.99999999999989
  0
LINE
  8
_0-4_
  6
CONTINUOUS
 62
    7
 10
215
 20
578.99999999999989
 11
215
 21
608.99999999999989
  0
LINE
  8
_0-4_
  6
CONTINUOUS
 62
    7
 10
213.49999999999994
 20
578.99999999999989
 11
213.49999999999994
 21
608.99999999999989
  0
LINE
  8
_0-4_
  6
CONTINUOUS
 62
    7
 10
215
 20
577.5
 11
223.49999999999994
 21
577.5
  0
LINE
  8
_0-4_
  6
CONTINUOUS
 62
    7
 10
215
 20
610.5
 11
223.49999999999994
 21
610.5
  0
LINE
  8
_0-5_
  6
CONTINUOUS
 62
    7
 10
224.00000000000006
 20
740
 11
224.00000000000006
 21
732
  0
LINE
  8
_0-5_
  6
CONTINUOUS
 62
    7
 10
224.00000000000006
 20
740
 11
225
 21
740
  0
LINE
  8
_0-5_
  6
CONTINUOUS
 62
    7
 10
224.00000000000006
 20
732
 11
225
 21
732
  0
LINE
  8
_0-2_
  6
CONTINUOUS
 62
    7
 10
820.00000000000011
 20
744
 11
220
 21
744
  0
LINE
  8
_0-2_
  6
CONTINUOUS
 62
    7
 10
220
 20
744
 11
220
 21
741
  0
LINE
  8
_0-3_
  6
CONTINUOUS
 62
    7
 10
813.50000000000011
 20
741
 11
220
 21
741
  0
LINE
  8
_0-4_
  6
CONTINUOUS
 62
    7
 10
815.00000000000011
 20
618.99999999999989
 11
225
 21
618.99999999999989
  0
LINE
  8
_0-4_
  6
CONTINUOUS
 62
    7
 10
815.00000000000011
 20
610.5
 11
225
 21
610.5
  0
LINE
  8
_0-4_
  6
CONTINUOUS
 62
    7
 10
815.00000000000011
 20
577.5
 11
225
 21
577.5
  0
LINE
  8
_0-4_
  6
CONTINUOUS
 62
    7
 10
815.00000000000011
 20
568.99999999999989
 11
225
 21
568.99999999999989
  0
LINE
  8
_0-3_
  6
CONTINUOUS
 62
    7
 10
223.49999999999994
 20
608.99999999999989
 11
223.49999999999994
 21
579
  0
LINE
  8
_0-3_
  6
CONTINUOUS
 62
    7
 10
816.5
 20
608.99999999999989
 11
816.5
 21
579
  0
LINE
  8
_0-3_
  6
CONTINUOUS
 62
    7
 10
813.50000000000011
 20
443.99999999999989
 11
226.50000000000006
 21
443.99999999999989
  0
LINE
  8
_0-3_
  6
CONTINUOUS
 62
    7
 10
226.50000000000006
 20
443.99999999999989
 11
226.50000000000006
 21
447
  0
LINE
  8
_0-3_
  6
CONTINUOUS
 62
    7
 10
813.50000000000011
 20
445.5
 11
226.50000000000006
 21
445.5
  0
LINE
  8
_0-0_
  6
CONTINUOUS
 62
    2
 10
1150
 20
379
 11
1164.488887394336
 21
382.88228567653783
  0
LINE
  8
_0-0_
  6
CONTINUOUS
 62
    2
 10
1150
 20
379
 11
1164.488887394336
 21
375.11771432346217
  0
LINE
  8
_0-0_
  6
CONTINUOUS
 62
    2
 10
1250
 20
379
 11
1235.511112605664
 21
382.88228567653783
  0
LINE
  8
_0-0_
  6
CONTINUOUS
 62
    2
 10
1250
 20
379
 11
1235.511112605664
 21
375.11771432346217
  0
LINE
  8
_0-0_
  6
CONTINUOUS
 62
    2
 10
1150
 20
374
 11
1150
 21
438.99999999999989
  0
LINE
  8
_0-0_
  6
CONTINUOUS
 62
    2
 10
1250
 20
374
 11
1250
 21
438.99999999999989
  0
LINE
  8
_0-0_
  6
CONTINUOUS
 62
    2
 10
1150
 20
379
 11
1250
 21
379
  0
TEXT
  8
_0-0_
 62
    7
 10
1180
 20
381.5
 40
25
 41
1
 50
0
  1
100
  0
LINE
  8
_0-0_
  6
CONTINUOUS
 62
    2
 10
1035
 20
344
 11
1049.488887394336
 21
347.88228567653783
  0
LINE
  8
_0-0_
  6
CONTINUOUS
 62
    2
 10
1035
 20
344
 11
1049.488887394336
 21
340.11771432346217
  0
LINE
  8
_0-0_
  6
CONTINUOUS
 62
    2
 10
1365
 20
344
 11
1350.5111126056638
 21
347.88228567653783
  0
LINE
  8
_0-0_
  6
CONTINUOUS
 62
    2
 10
1365
 20
344
 11
1350.5111126056638
 21
340.11771432346217
  0
LINE
  8
_0-0_
  6
CONTINUOUS
 62
    2
 10
1035
 20
339
 11
1035
 21
438.99999999999989
  0
LINE
  8
_0-0_
  6
CONTINUOUS
 62
    2
 10
1365
 20
339
 11
1365
 21
438.99999999999989
  0
LINE
  8
_0-0_
  6
CONTINUOUS
 62
    2
 10
1035
 20
344
 11
1365
 21
344
  0
TEXT
  8
_0-0_
 62
    7
 10
1180
 20
346.5
 40
25
 41
1
 50
0
  1
330
  0
LINE
  8
_0-0_
  6
CONTINUOUS
 62
    2
 10
205
 20
344
 11
219.48888739433599
 21
347.88228567653783
  0
LINE
  8
_0-0_
  6
CONTINUOUS
 62
    2
 10
205
 20
344
 11
219.48888739433599
 21
340.11771432346217
  0
LINE
  8
_0-0_
  6
CONTINUOUS
 62
    2
 10
835.00000000000011
 20
344
 11
820.51111260566415
 21
347.88228567653783
  0
LINE
  8
_0-0_
  6
CONTINUOUS
 62
    2
 10
835.00000000000011
 20
344
 11
820.51111260566415
 21
340.11771432346217
  0
LINE
  8
_0-0_
  6
CONTINUOUS
 62
    2
 10
205
 20
339
 11
205
 21
438.99999999999989
  0
LINE
  8
_0-0_
  6
CONTINUOUS
 62
    2
 10
835.00000000000011
 20
339
 11
835.00000000000011
 21
438.99999999999989
  0
LINE
  8
_0-0_
  6
CONTINUOUS
 62
    2
 10
205
 20
344
 11
835.00000000000011
 21
344
  0
TEXT
  8
_0-0_
 62
    7
 10
500.00000000000006
 20
346.5
 40
25
 41
1
 50
0
  1
630
  0
LINE
  8
_0-0_
  6
CONTINUOUS
 62
    2
 10
1115
 20
443.99999999999989
 11
1111.1177143234622
 21
458.4888873943359
  0
LINE
  8
_0-0_
  6
CONTINUOUS
 62
    2
 10
1115
 20
443.99999999999989
 11
1118.8822856765378
 21
458.4888873943359
  0
LINE
  8
_0-0_
  6
CONTINUOUS
 62
    2
 10
1115
 20
523.99999999999989
 11
1111.1177143234622
 21
509.51111260566393
  0
LINE
  8
_0-0_
  6
CONTINUOUS
 62
    2
 10
1115
 20
523.99999999999989
 11
1118.8822856765378
 21
509.51111260566393
  0
LINE
  8
_0-0_
  6
CONTINUOUS
 62
    2
 10
1110
 20
523.99999999999989
 11
1195
 21
523.99999999999989
  0
LINE
  8
_0-0_
  6
CONTINUOUS
 62
    2
 10
1115
 20
443.99999999999989
 11
1115
 21
523.99999999999989
  0
TEXT
  8
_0-0_
 62
    7
 10
1112.5
 20
470.87499999999989
 40
25
 41
1
 50
90
  1
80
  0
ARC
  8
_0-7_
  6
CONTINUOUS
 62
    7
 10
1237.3137259985444
 20
1073.400079316051
 40
0.5
 50
205.71248499999999
 51
270
  0
LINE
  8
_0-7_
  6
CONTINUOUS
 62
    7
 10
1261.5000009985445
 20
1119.900079316051
 11
1261.5000009985445
 21
1120.4000793160512
  0
LINE
  8
_0-7_
  6
CONTINUOUS
 62
    7
 10
1261.5000009985445
 20
1135.4000793160512
 11
1261.5000009985445
 21
1135.900079316051
  0
ARC
  8
_0-7_
  6
CONTINUOUS
 62
    7
 10
1240.2890309985448
 20
1085.894857316051
 40
3.0000000000000004
 50
194.138747
 51
267.92951900000003
  0
LINE
  8
_0-7_
  6
CONTINUOUS
 62
    7
 10
1261.5000009985445
 20
1135.900079316051
 11
1266.4998690306393
 21
1135.900079316051
  0
LINE
  8
_0-7_
  6
CONTINUOUS
 62
    7
 10
1261.5000009985445
 20
1119.9000265288892
 11
1266.4998690306393
 21
1119.9000265288892
  0
LINE
  8
_0-7_
  6
CONTINUOUS
 62
    7
 10
1266.4998690306393
 20
1135.900079316051
 11
1266.4998690306393
 21
1119.9000265288892
  0
LINE
  8
_0-7_
  6
CONTINUOUS
 62
    7
 10
1266.4998690306393
 20
1122.9001848903754
 11
1276.5000009985445
 21
1122.9001848903754
  0
LINE
  8
_0-7_
  6
CONTINUOUS
 62
    7
 10
1276.5000009985445
 20
1124.4000661192606
 11
1276.5000009985445
 21
1119.9000265288892
  0
LINE
  8
_0-7_
  6
CONTINUOUS
 62
    7
 10
1276.5000009985445
 20
1119.9000265288892
 11
1281.5000669824967
 21
1119.9000265288892
  0
LINE
  8
_0-7_
  6
CONTINUOUS
 62
    7
 10
1281.5000669824967
 20
1135.900079316051
 11
1281.5000669824967
 21
1119.9000265288892
  0
LINE
  8
_0-7_
  6
CONTINUOUS
 62
    7
 10
1276.5000009985445
 20
1124.4000661192606
 11
1281.5000669824967
 21
1124.4000661192606
  0
LINE
  8
_0-7_
  6
CONTINUOUS
 62
    7
 10
1276.5000009985445
 20
1131.4002376775377
 11
1281.5000669824967
 21
1131.4002376775377
  0
LINE
  8
_0-7_
  6
CONTINUOUS
 62
    7
 10
1276.5000009985445
 20
1135.900079316051
 11
1281.5000669824967
 21
1135.900079316051
  0
LINE
  8
_0-7_
  6
CONTINUOUS
 62
    7
 10
1276.5000009985445
 20
1135.900079316051
 11
1276.5000009985445
 21
1131.4002376775377
  0
LINE
  8
_0-7_
  6
CONTINUOUS
 62
    7
 10
1266.4998690306393
 20
1132.9001189064227
 11
1276.5000009985445
 21
1132.9001189064227
  0
CIRCLE
  8
_0-7_
  6
CONTINUOUS
 62
    7
 10
1240.0000009985447
 20
1077.9000793160512
 40
2.4999997422501847
  0
ARC
  8
_0-7_
  6
CONTINUOUS
 62
    7
 10
1345.0680479985442
 20
1125.2876533160511
 40
120.09646400000001
 50
178.75356200000002
 51
205.71248500000002
  0
ARC
  8
_0-7_
  6
CONTINUOUS
 62
    7
 10
1240.0000009985447
 20
1077.9000793160512
 40
5
 50
270
 51
87.929519000000013
  0
LINE
  8
_0-7_
  6
CONTINUOUS
 62
    7
 10
1237.3137259985444
 20
1072.9000793160512
 11
1240.0000009985447
 21
1072.9000793160512
  0
ARC
  8
_0-7_
  6
CONTINUOUS
 62
    7
 10
1362.2978279985443
 20
1116.629079316051
 40
128.82026400000001
 50
179.41185500000003
 51
194.13874700000002
  0
ARC
  8
_0-7_
  6
CONTINUOUS
 62
    7
 10
1238.4840869985446
 20
1117.9000793160512
 40
5
 50
90
 51
179.41185500000003
  0
LINE
  8
_0-7_
  6
CONTINUOUS
 62
    7
 10
1238.4840869985446
 20
1122.9000793160512
 11
1259.0000009985445
 21
1122.9000793160512
  0
ARC
  8
_0-7_
  6
CONTINUOUS
 62
    7
 10
1259.0000009985445
 20
1120.4000793160512
 40
2.5
 50
0
 51
90
  0
ARC
  8
_0-7_
  6
CONTINUOUS
 62
    7
 10
1259.0000009985445
 20
1135.4000793160512
 40
2.5
 50
270
 51
0
  0
LINE
  8
_0-7_
  6
CONTINUOUS
 62
    7
 10
1240.3183119985445
 20
1132.9000793160512
 11
1259.0000009985445
 21
1132.9000793160512
  0
ARC
  8
_0-7_
  6
CONTINUOUS
 62
    7
 10
1240.3183119985445
 20
1137.9000793160512
 40
5
 50
170.10812900000002
 51
270
  0
ARC
  8
_0-7_
  6
CONTINUOUS
 62
    7
 10
1362.2978279985443
 20
1116.629079316051
 40
128.82026400000001
 50
161.689502
 51
170.10812899999999
  0
LINE
  8
_0-7_
  6
CONTINUOUS
 62
    7
 10
1230.0698679985444
 20
1155.1140533160512
 11
1240.0000009985447
 21
1157.1000793160511
  0
ARC
  8
_0-7_
  6
CONTINUOUS
 62
    7
 10
1329.6304349985444
 20
1122.4870363160512
 40
104.77036300000002
 50
161.855501
 51
177.03845000000001
  0
LINE
  8
_0-7_
  6
CONTINUOUS
 62
    7
 10
1162.4999340160475
 20
1072.8999209545645
 11
1171.4998152449325
 21
1072.8999209545645
  0
LINE
  8
_0-7_
  6
CONTINUOUS
 62
    7
 10
1162.5240828220126
 20
1157.1000793160511
 11
1158.9997492609798
 21
1127.90005292247
  0
LINE
  8
_0-7_
  6
CONTINUOUS
 62
    7
 10
1171.4756664389674
 20
1157.1000793160511
 11
1162.5240828220126
 21
1157.1000793160511
  0
LINE
  8
_0-7_
  6
CONTINUOUS
 62
    7
 10
1175
 20
1127.90005292247
 11
1171.4756664389674
 21
1157.1000793160511
  0
LINE
  8
_0-7_
  6
CONTINUOUS
 62
    7
 10
1171.7153724103675
 20
1155.114052576422
 11
1162.2843768506123
 21
1155.114052576422
  0
LINE
  8
_0-7_
  6
CONTINUOUS
 62
    7
 10
1171.4998152449325
 20
1072.8999209545645
 11
1175
 21
1127.90005292247
  0
LINE
  8
_0-7_
  6
CONTINUOUS
 62
    7
 10
1158.9997492609798
 20
1127.90005292247
 11
1162.4999340160475
 21
1072.8999209545645
  0
LINE
  8
_0-0_
  6
CONTINUOUS
 62
    7
 10
527.50000000000011
 20
998.00961894323336
 11
538.1066017177983
 21
987.40301722543506
  0
LINE
  8
_0-0_
  6
CONTINUOUS
 62
    7
 10
527.50000000000011
 20
998.00961894323336
 11
531.38228567653789
 21
983.52073154889717
  0
POINT
  8
_0-0_
 62
    2
 10
770.00000000000011
 20
1115
  0
LINE
  8
_0-0_
  6
CONTINUOUS
 62
    7
 10
820.00000000000011
 20
742.5
 11
830.6066017177983
 21
753.10660171779818
  0
LINE
  8
_0-0_
  6
CONTINUOUS
 62
    7
 10
820.00000000000011
 20
742.5
 11
834.48888739433619
 21
746.38228567653778
  0
LINE
  8
_0-0_
  6
CONTINUOUS
 62
    7
 10
816.5
 20
668.24999999999989
 11
827.10660171779841
 21
678.85660171779818
  0
LINE
  8
_0-0_
  6
CONTINUOUS
 62
    7
 10
816.5
 20
668.24999999999989
 11
830.98888739433607
 21
672.13228567653778
  0
LINE
  8
_0-0_
  6
CONTINUOUS
 62
    7
 10
826.5
 20
593.99999999999989
 11
837.10660171779841
 21
604.60660171779818
  0
LINE
  8
_0-0_
  6
CONTINUOUS
 62
    7
 10
826.5
 20
593.99999999999989
 11
840.98888739433607
 21
597.88228567653778
  0
LINE
  8
_0-0_
  6
CONTINUOUS
 62
    7
 10
1315.0001806443627
 20
739.46410161513768
 11
1318.8824663209004
 21
753.95298900947364
  0
LINE
  8
_0-0_
  6
CONTINUOUS
 62
    7
 10
1315.0001806443627
 20
739.46410161513768
 11
1325.6067823621609
 21
750.07070333293598
  0
CIRCLE
  8
_0-0_
  6
CONTINUOUS
 62
    7
 10
885
 20
1181.3952809568068
 40
15
  0
CIRCLE
  8
_0-0_
  6
CONTINUOUS
 62
    7
 10
885
 20
780.02776749732561
 40
15
  0
CIRCLE
  8
_0-0_
  6
CONTINUOUS
 62
    7
 10
885
 20
707.79849343948922
 40
15
  0
CIRCLE
  8
_0-0_
  6
CONTINUOUS
 62
    7
 10
885
 20
627.77499074759294
 40
15
  0
CIRCLE
  8
_0-0_
  6
CONTINUOUS
 62
    7
 10
1349.9505978724987
 20
800
 40
15
  0
CIRCLE
  8
_0-0_
  6
CONTINUOUS
 62
    7
 10
584.0858798800482
 20
900
 40
15
  0
CIRCLE
  8
_0-0_
  6
CONTINUOUS
 62
    7
 10
1133.9997492609798
 20
1207.1000793160511
 40
15
  0
TEXT
  8
_0-0_
 62
    7
 10
872.5
 20
1168.8952809568068
 40
25
 41
1
 50
0
  1
１
  0
TEXT
  8
_0-0_
 62
    7
 10
872.5
 20
767.52776749732561
 40
25
 41
1
 50
0
  1
２
  0
TEXT
  8
_0-0_
 62
    7
 10
872.5
 20
695.29849343948922
 40
25
 41
1
 50
0
  1
３
  0
TEXT
  8
_0-0_
 62
    7
 10
872.5
 20
615.27499074759294
 40
25
 41
1
 50
0
  1
４
  0
TEXT
  8
_0-0_
 62
    7
 10
1337.4505978724987
 20
787.5
 40
25
 41
1
 50
0
  1
５
  0
TEXT
  8
_0-0_
 62
    7
 10
571.5858798800482
 20
887.5
 40
25
 41
1
 50
0
  1
６
  0
TEXT
  8
_0-0_
 62
    7
 10
1121.4997492609798
 20
1194.6000793160511
 40
25
 41
1
 50
0
  1
７
  0
LINE
  8
_0-0_
  6
CONTINUOUS
 62
    7
 10
770.00000000000011
 20
1115
 11
872.00961894323336
 21
1173.8952809568068
  0
LINE
  8
_0-0_
  6
CONTINUOUS
 62
    7
 10
527.50000000000011
 20
998.00961894323336
 11
576.58587988004842
 21
912.99038105676664
  0
LINE
  8
_0-0_
  6
CONTINUOUS
 62
    7
 10
820.00000000000011
 20
742.5
 11
872.00961894323336
 21
772.52776749732561
  0
LINE
  8
_0-0_
  6
CONTINUOUS
 62
    7
 10
816.5
 20
668.24999999999989
 11
872.00961894323336
 21
700.29849343948922
  0
LINE
  8
_0-0_
  6
CONTINUOUS
 62
    7
 10
826.5
 20
593.99999999999989
 11
872.00961894323336
 21
620.27499074759294
  0
LINE
  8
_0-0_
  6
CONTINUOUS
 62
    7
 10
1315.0001806443627
 20
739.46410161513768
 11
1342.4505978724987
 21
787.00961894323336
  0
TEXT
  8
_0-f_
 62
    7
 10
1610
 20
480
 40
20
 41
1
 50
0
  1
番号
  0
TEXT
  8
_0-f_
 62
    7
 10
1620
 20
450
 40
20
 41
1
 50
0
  1
１
  0
TEXT
  8
_0-f_
 62
    7
 10
1620
 20
420
 40
20
 41
1
 50
0
  1
２
  0
POINT
  8
_0-f_
 62
    9
 10
1630
 20
480
  0
POINT
  8
_0-f_
 62
    9
 10
1630
 20
450
  0
POINT
  8
_0-f_
 62
    9
 10
1630
 20
420
  0
LINE
  8
_0-f_
  6
CONTINUOUS
 62
    7
 10
1605
 20
505
 11
2025
 21
505
  0
LINE
  8
_0-f_
  6
CONTINUOUS
 62
    7
 10
1605
 20
475
 11
2025
 21
475
  0
LINE
  8
_0-f_
  6
CONTINUOUS
 62
    7
 10
1605
 20
445
 11
2025
 21
445
  0
LINE
  8
_0-f_
  6
CONTINUOUS
 62
    7
 10
1605
 20
415
 11
2025
 21
415
  0
POINT
  8
_0-f_
 62
    9
 10
1730
 20
480
  0
POINT
  8
_0-f_
 62
    9
 10
1730
 20
450
  0
POINT
  8
_0-f_
 62
    9
 10
1730
 20
420
  0
POINT
  8
_0-f_
 62
    9
 10
1950
 20
420
  0
POINT
  8
_0-f_
 62
    9
 10
1950
 20
450
  0
POINT
  8
_0-f_
 62
    9
 10
1950
 20
480
  0
POINT
  8
_0-f_
 62
    9
 10
1840
 20
480
  0
POINT
  8
_0-f_
 62
    9
 10
1840
 20
450
  0
POINT
  8
_0-f_
 62
    9
 10
1840
 20
420
  0
POINT
  8
_0-f_
 62
    9
 10
1630
 20
390
  0
LINE
  8
_0-f_
  6
CONTINUOUS
 62
    7
 10
1605
 20
385
 11
2025
 21
385
  0
POINT
  8
_0-f_
 62
    9
 10
1730
 20
390
  0
POINT
  8
_0-f_
 62
    9
 10
1950
 20
390
  0
POINT
  8
_0-f_
 62
    9
 10
1840
 20
390
  0
TEXT
  8
_0-f_
 62
    7
 10
1620
 20
390
 40
20
 41
1
 50
0
  1
３
  0
TEXT
  8
_0-f_
 62
    7
 10
1930
 20
480
 40
20
 41
1
 50
0
  1
備考
  0
TEXT
  8
_0-f_
 62
    7
 10
1820
 20
480
 40
20
 41
1
 50
0
  1
材質
  0
TEXT
  8
_0-f_
 62
    7
 10
1680
 20
480
 40
20
 41
1
 50
0
  1
部　材　名
  0
POINT
  8
_0-f_
 62
    9
 10
1630
 20
360
  0
LINE
  8
_0-f_
  6
CONTINUOUS
 62
    7
 10
1605
 20
355
 11
2025
 21
355
  0
POINT
  8
_0-f_
 62
    9
 10
1730
 20
360
  0
POINT
  8
_0-f_
 62
    9
 10
1950
 20
360
  0
POINT
  8
_0-f_
 62
    9
 10
1840
 20
360
  0
POINT
  8
_0-f_
 62
    9
 10
1630
 20
330
  0
LINE
  8
_0-f_
  6
CONTINUOUS
 62
    7
 10
1605
 20
325
 11
2025
 21
325
  0
POINT
  8
_0-f_
 62
    9
 10
1730
 20
330
  0
POINT
  8
_0-f_
 62
    9
 10
1950
 20
330
  0
POINT
  8
_0-f_
 62
    9
 10
1840
 20
330
  0
POINT
  8
_0-f_
 62
    9
 10
1630
 20
300
  0
LINE
  8
_0-f_
  6
CONTINUOUS
 62
    7
 10
1605
 20
295
 11
2025
 21
295
  0
POINT
  8
_0-f_
 62
    9
 10
1730
 20
300
  0
POINT
  8
_0-f_
 62
    9
 10
1950
 20
300
  0
POINT
  8
_0-f_
 62
    9
 10
1840
 20
300
  0
POINT
  8
_0-f_
 62
    9
 10
1630
 20
270
  0
LINE
  8
_0-f_
  6
CONTINUOUS
 62
    7
 10
1605
 20
265
 11
2025
 21
265
  0
POINT
  8
_0-f_
 62
    9
 10
1730
 20
270
  0
POINT
  8
_0-f_
 62
    9
 10
1950
 20
270
  0
POINT
  8
_0-f_
 62
    9
 10
1840
 20
270
  0
LINE
  8
_0-f_
  6
CONTINUOUS
 62
    7
 10
1605
 20
265
 11
1605
 21
505
  0
LINE
  8
_0-f_
  6
CONTINUOUS
 62
    7
 10
1655
 20
265
 11
1655
 21
505
  0
LINE
  8
_0-f_
  6
CONTINUOUS
 62
    7
 10
1805
 20
265
 11
1805
 21
505
  0
LINE
  8
_0-f_
  6
CONTINUOUS
 62
    7
 10
1875
 20
265
 11
1875
 21
505
  0
LINE
  8
_0-f_
  6
CONTINUOUS
 62
    7
 10
2025
 20
265
 11
2025
 21
505
  0
TEXT
  8
_0-f_
 62
    7
 10
1620
 20
360
 40
20
 41
1
 50
0
  1
４
  0
TEXT
  8
_0-f_
 62
    7
 10
1620
 20
330
 40
20
 41
1
 50
0
  1
５
  0
TEXT
  8
_0-f_
 62
    7
 10
1620
 20
300
 40
20
 41
1
 50
0
  1
６
  0
TEXT
  8
_0-f_
 62
    7
 10
1620
 20
270
 40
20
 41
1
 50
0
  1
７
  0
TEXT
  8
_0-f_
 62
    7
 10
1720
 20
450
 40
20
 41
1
 50
0
  1
蓋
  0
TEXT
  8
_0-f_
 62
    7
 10
1710
 20
420
 40
20
 41
1
 50
0
  1
目地
  0
TEXT
  8
_0-f_
 62
    7
 10
1710
 20
390
 40
20
 41
1
 50
0
  1
本体
  0
TEXT
  8
_0-f_
 62
    7
 10
1710
 20
360
 40
20
 41
1
 50
0
  1
補強
  0
TEXT
  8
_0-f_
 62
    7
 10
1700
 20
330
 40
20
 41
1
 50
0
  1
回転軸
  0
TEXT
  8
_0-f_
 62
    7
 10
1660.625
 20
300
 40
20
 41
0.925
 50
0
  1
ｷｬｯﾌﾟ付ﾛｯｸﾊﾝﾄﾞﾙ
  0
TEXT
  8
_0-f_
 62
    7
 10
1690
 20
270
 40
20
 41
1
 50
0
  1
ハンドル
  0
TEXT
  8
_0-f_
 62
    7
 10
1810
 20
450
 40
20
 41
1
 50
0
  1
SUS304
  0
TEXT
  8
_0-f_
 62
    7
 10
1810
 20
420
 40
20
 41
1
 50
0
  1
SUS304
  0
TEXT
  8
_0-f_
 62
    7
 10
1810
 20
390
 40
20
 41
1
 50
0
  1
SUS304
  0
TEXT
  8
_0-f_
 62
    7
 10
1810
 20
360
 40
20
 41
1
 50
0
  1
SUS304
  0
TEXT
  8
_0-f_
 62
    7
 10
1810
 20
330
 40
20
 41
1
 50
0
  1
SUS304
  0
TEXT
  8
_0-f_
 62
    7
 10
1825
 20
300
 40
20
 41
1
 50
0
  1
ZDC
  0
TEXT
  8
_0-f_
 62
    7
 10
1825
 20
270
 40
20
 41
1
 50
0
  1
ZDC
  0
TEXT
  8
_0-f_
 62
    7
 10
1940
 20
450
 40
20
 41
1
 50
0
  1
t3
  0
TEXT
  8
_0-f_
 62
    7
 10
1915
 20
420
 40
20
 41
1
 50
0
  1
t3x15FB
  0
TEXT
  8
_0-f_
 62
    7
 10
1930
 20
390
 40
20
 41
1
 50
0
  1
t1.5
  0
TEXT
  8
_0-f_
 62
    7
 10
1930
 20
360
 40
20
 41
1
 50
0
  1
t1.5
  0
TEXT
  8
_0-f_
 62
    7
 10
1935
 20
330
 40
20
 41
1
 50
0
  1
φ8
  0
TEXT
  8
_0-f_
 62
    7
 10
1595
 20
97.5
 40
22.5
 41
1
 50
0
  1
ステンレス製電磁弁ボックス（土間埋設型）
  0
TEXT
  8
_0-f_
 62
    7
 10
1595
 20
52.5
 40
22.5
 41
1
 50
0
  1
ＳＢ５０－２
  0
TEXT
  8
_0-f_
 62
    7
 10
1990
 20
52.5
 40
17.5
 41
1
 50
0
  1
SB
  0
TEXT
  8
_0-f_
 62
    7
 10
1430.625
 20
97.5
 40
17.5
 41
1
 50
0
  1
2008.01.26.-1
  0
TEXT
  8
_0-f_
 62
    7
 10
1655
 20
555
 40
20
 41
1
 50
0
  1
※）表面ヘアーライン仕上げ
  0
ENDSEC
  0
EOF
