  0
SECTION
  2
HEADER
  9
$ACADVER
  1
AC1009
  9
$INSBASE
 10
0
 20
0
 30
0
  9
$EXTMIN
 10
0
 20
0
  9
$EXTMAX
 10
4752
 20
3360
  9
$LIMMIN
 10
0
 20
0
  9
$LIMMAX
 10
4752
 20
3360
  9
$LTSCALE
 40
8
  0
ENDSEC
  0
SECTION
  2
TABLES
  0
TABLE
  2
LTYPE
 70
     9
  0
LTYPE
  2
CONTINUOUS
 70
    64
  3
実線
 72
    65
 73
     0
 40
0.0
  0
LTYPE
  2
DASHED1
 70
    64
  3
--  --  --  --  --  --  --  --  
 72
    65
 73
     2
 40
2.5
 49
1.25
 49
-1.25
  0
LTYPE
  2
DASHED2
 70
    64
  3
----    ----    ----    ----    
 72
    65
 73
     2
 40
5.0
 49
2.5
 49
-2.5
  0
LTYPE
  2
DASHED3
 70
    64
  3
------  ------  ------  ------  
 72
    65
 73
     2
 40
5.0
 49
3.75
 49
-1.25
  0
LTYPE
  2
CENTER1
 70
    64
  3
----- - ----- - ----- - ----- - 
 72
    65
 73
     4
 40
10.0
 49
6.25
 49
-1.25
 49
1.25
 49
-1.25
  0
LTYPE
  2
CENTER2
 70
    64
  3
----------  --  ----------  --  
 72
    65
 73
     4
 40
20.0
 49
12.5
 49
-2.5
 49
2.5
 49
-2.5
  0
LTYPE
  2
PHANTOM1
 70
    64
  3
--- - - --- - - --- - - --- - - 
 72
    65
 73
     6
 40
10.0
 49
3.25
 49
-1.25
 49
1.25
 49
-1.25
 49
1.25
 49
-1.25
  0
LTYPE
  2
PHANTOM2
 70
    64
  3
--------  -  -  --------  -  -  
 72
    65
 73
     6
 40
20.0
 49
10.0
 49
-2.5
 49
1.25
 49
-2.5
 49
1.25
 49
-2.5
  0
LTYPE
  2
DOT
 70
    64
  3
-   -   -   -   -   -   -   -   
 72
    65
 73
     2
 40
2.5
 49
0.625
 49
-1.875
  0
LTYPE
  2
DUMMY
 70
    64
  3
ダミー
 72
    65
 73
     0
 40
0.0
  0
LTYPE
  2
RAND1
 70
    64
  3
ランダム線1
 72
    65
 73
     4
 40
10.0
 49
1.0
 49
-2.0
 49
3.0
 49
-4.0
  0
LTYPE
  2
RAND2
 70
    64
  3
ランダム線2
 72
    65
 73
     4
 40
14.0
 49
2.0
 49
-3.0
 49
4.0
 49
-5.0
  0
LTYPE
  2
RAND3
 70
    64
  3
ランダム線3
 72
    65
 73
     4
 40
18.0
 49
3.0
 49
-4.0
 49
5.0
 49
-6.0
  0
LTYPE
  2
RAND4
 70
    64
  3
ランダム線4
 72
    65
 73
     4
 40
22.0
 49
4.0
 49
-5.0
 49
6.0
 49
-7.0
  0
LTYPE
  2
RAND5
 70
    64
  3
ランダム線5
 72
    65
 73
     4
 40
26.0
 49
5.0
 49
-6.0
 49
7.0
 49
-8.0
  0
LTYPE
  2
LONG1
 70
    64
  3
----------  --  ----------  --  
 72
    65
 73
     4
 40
40.0
 49
32.5
 49
-2.5
 49
2.5
 49
-2.5
  0
LTYPE
  2
LONG2
 70
    64
  3
--------  -  -  --------  -  -  
 72
    65
 73
     6
 40
40.0
 49
30.0
 49
-2.5
 49
1.25
 49
-2.5
 49
1.25
 49
-2.5
  0
LTYPE
  2
LONG3
 70
    64
  3
+++++++++++++++..+++++++++++++++
 72
    65
 73
     2
 40
40.0
 49
37.5
 49
-2.5
  0
LTYPE
  2
LONG4
 70
    64
  3
+++++++++++++++..+++++++++++++++
 72
    65
 73
     2
 40
80.0
 49
75.0
 49
-5.0
  0
LTYPE
  2
LONG5
 70
    64
  3
----------  --  ----------  --  
 72
    65
 73
     4
 40
60.0
 49
37.5
 49
-7.5
 49
7.5
 49
-7.5
  0
LTYPE
  2
dashed
 70
   64
  3
-------   -------------   ------
 72
   65
 73
    2
 40
7.5
 49
6
 49
-1.5
  0
LTYPE
  2
dashed_spaced
 70
   64
  3
----        --------        ----
 72
   65
 73
    2
 40
12
 49
6
 49
-6
  0
LTYPE
  2
long_dashed_dotted
 70
   64
  3
------------- --- --------------
 72
   65
 73
    4
 40
15.25
 49
12
 49
-1.5
 49
0.25
 49
-1.5
  0
LTYPE
  2
long_dashed_double-dotted
 70
   64
  3
----------- --- --- ------------
 72
   65
 73
    6
 40
17
 49
12
 49
-1.5
 49
0.25
 49
-1.5
 49
0.25
 49
-1.5
  0
LTYPE
  2
long_dashed_triplicate-dotted
 70
   64
  3
--------- --- --- --- ----------
 72
   65
 73
    8
 40
18.75
 49
12
 49
-1.5
 49
0.25
 49
-1.5
 49
0.25
 49
-1.5
 49
0.25
 49
-1.5
  0
LTYPE
  2
dotted
 70
   64
  3
   -       -       -       -    
 72
   65
 73
    2
 40
1.75
 49
0.25
 49
-1.5
  0
LTYPE
  2
chain
 70
   64
  3
-------------- -- --------------
 72
   65
 73
    4
 40
18.5
 49
12
 49
-1.5
 49
3.5
 49
-1.5
  0
LTYPE
  2
chain_double_dash
 70
   64
  3
------------ -- -- -------------
 72
   65
 73
    6
 40
23.5
 49
12
 49
-1.5
 49
3.5
 49
-1.5
 49
3.5
 49
-1.5
  0
LTYPE
  2
dashed_dotted
 70
   64
  3
-----------     -     ----------
 72
   65
 73
    4
 40
9.25
 49
6
 49
-1.5
 49
0.25
 49
-1.5
  0
LTYPE
  2
double-dashed_dotted
 70
   64
  3
------   -----------   -   -----
 72
   65
 73
    6
 40
16.75
 49
6
 49
-1.5
 49
6
 49
-1.5
 49
0.25
 49
-1.5
  0
LTYPE
  2
dashed_double-dotted
 70
   64
  3
---------    -    -    ---------
 72
   65
 73
    6
 40
11
 49
6
 49
-1.5
 49
0.25
 49
-1.5
 49
0.25
 49
-1.5
  0
LTYPE
  2
double-dashed_double-dotted
 70
   64
  3
-----   ---------   -   -   ----
 72
   65
 73
    8
 40
18.5
 49
6
 49
-1.5
 49
6
 49
-1.5
 49
0.25
 49
-1.5
 49
0.25
 49
-1.5
  0
LTYPE
  2
dashed_triplicate-dotted
 70
   64
  3
-------    -    -    -    ------
 72
   65
 73
    8
 40
12.75
 49
6
 49
-1.5
 49
0.25
 49
-1.5
 49
0.25
 49
-1.5
 49
0.25
 49
-1.5
  0
LTYPE
  2
double-dashed_triplicate-dotted
 70
   64
  3
-----  ---------  -  -  -  -----
 72
   65
 73
   10
 40
20.25
 49
6
 49
-1.5
 49
6
 49
-1.5
 49
0.25
 49
-1.5
 49
0.25
 49
-1.5
 49
0.25
 49
-1.5
  0
LTYPE
  2
undefined
 70
   64
  3
--------------------------------
 72
   65
 73
    0
 40
0
  0
LTYPE
  2
_
 70
   64
  3
                                
 72
   65
 73
    0
 40
0
  0
LTYPE
  2
__18
 70
   64
  3
                                
 72
   65
 73
    0
 40
0
  0
LTYPE
  2
__19
 70
   64
  3
                                
 72
   65
 73
    0
 40
0
  0
LTYPE
  2
__20
 70
   64
  3
                                
 72
   65
 73
    0
 40
0
  0
LTYPE
  2
__21
 70
   64
  3
                                
 72
   65
 73
    0
 40
0
  0
LTYPE
  2
__22
 70
   64
  3
                                
 72
   65
 73
    0
 40
0
  0
LTYPE
  2
__23
 70
   64
  3
                                
 72
   65
 73
    0
 40
0
  0
LTYPE
  2
__24
 70
   64
  3
                                
 72
   65
 73
    0
 40
0
  0
LTYPE
  2
__25
 70
   64
  3
                                
 72
   65
 73
    0
 40
0
  0
LTYPE
  2
__26
 70
   64
  3
                                
 72
   65
 73
    0
 40
0
  0
LTYPE
  2
__27
 70
   64
  3
                                
 72
   65
 73
    0
 40
0
  0
LTYPE
  2
__28
 70
   64
  3
                                
 72
   65
 73
    0
 40
0
  0
LTYPE
  2
__29
 70
   64
  3
                                
 72
   65
 73
    0
 40
0
  0
LTYPE
  2
__30
 70
   64
  3
                                
 72
   65
 73
    0
 40
0
  0
LTYPE
  2
__31
 70
   64
  3
                                
 72
   65
 73
    0
 40
0
  0
LTYPE
  2
__32
 70
   64
  3
                                
 72
   65
 73
    0
 40
0
  0
ENDTAB
  0
TABLE
  2
STYLE
  5
3
100
AcDbSymbolTable
 70
     1
  0
STYLE
  5
10
100
AcDbSymbolTableRecord
100
AcDbTextStyleTableRecord
  2
STANDARD
 70
     0
 40
0.0
 41
1.0
 50
0.0
 71
     0
 42
0.2
  3
txt
  4
bigfont.shx
  0
STYLE
  5
26
100
AcDbSymbolTableRecord
100
AcDbTextStyleTableRecord
  2
TATEGAKI
 70
    68
 40
0.0
 41
1.0
 50
0.0
 71
     0
 42
1.0
  3
txt
  4
bigfont.shx
  0
ENDTAB
  0
TABLE
  2
LAYER
 70
    2
  0
LAYER
  2
_0-0_
 70
   64
 62
    7
  6
CONTINUOUS
  0
LAYER
  2
ADD_LINE
 70
   64
 62
    7
  6
CONTINUOUS
  0
ENDTAB
  0
ENDSEC
  0
SECTION
  2
BLOCKS
  0
ENDSEC
  0
SECTION
  2
ENTITIES
  0
LINE
  8
_0-0_
  6
CONTINUOUS
 62
    7
 10
1530.34705292024
 20
3121.34274906883
 11
1534.849552226181
 21
3121.34274906883
  0
LINE
  8
_0-0_
  6
CONTINUOUS
 62
    7
 10
1585.1777550665001
 20
2996.8977518428319
 11
1665.1777550665001
 21
2996.8977518428319
  0
LINE
  8
_0-0_
  6
CONTINUOUS
 62
    7
 10
1585.1777550665001
 20
2986.8977518428319
 11
1665.1777550665001
 21
2986.8977518428319
  0
LINE
  8
_0-0_
  6
CONTINUOUS
 62
    7
 10
1585.1777550665001
 20
3006.8977518428319
 11
1665.1777550665001
 21
3006.8977518428319
  0
LINE
  8
_0-0_
  6
CONTINUOUS
 62
    7
 10
1485.1777550665001
 20
3021.8977518428319
 11
1655.1777550665001
 21
3021.8977518428319
  0
LINE
  8
_0-0_
  6
CONTINUOUS
 62
    7
 10
1635.1777550665001
 20
3051.8977518428319
 11
1535.1777550665001
 21
3051.8977518428319
  0
LINE
  8
_0-0_
  6
CONTINUOUS
 62
    7
 10
1535.1777550665001
 20
3045.8977518428319
 11
1635.1777550665001
 21
3045.8977518428319
  0
LINE
  8
_0-0_
  6
CONTINUOUS
 62
    7
 10
1535.1777550665001
 20
3039.8977518428319
 11
1635.1777550665001
 21
3039.8977518428319
  0
LINE
  8
_0-0_
  6
CONTINUOUS
 62
    7
 10
1535.1777550665001
 20
3051.8977518428319
 11
1635.1777550665001
 21
3051.8977518428319
  0
ARC
  8
_0-0_
  6
CONTINUOUS
 62
    7
 10
1558.34705292024
 20
3199.34274906883
 40
1
 50
90
 51
180
  0
LINE
  8
_0-0_
  6
CONTINUOUS
 62
    7
 10
1558.34705292024
 20
3200.34274906883
 11
1580.34705292024
 21
3200.34274906883
  0
ARC
  8
_0-0_
  6
CONTINUOUS
 62
    7
 10
1580.34705292024
 20
3199.34274906883
 40
1
 50
0
 51
89.999999999999986
  0
ARC
  8
_0-0_
  6
CONTINUOUS
 62
    7
 10
1569.34705292024
 20
3121.34274906883
 40
70
 50
80.129110393860643
 51
99.870889606139485
  0
LINE
  8
_0-0_
  6
CONTINUOUS
 62
    7
 10
1557.34705292024
 20
3199.34274906883
 11
1557.34705292024
 21
3190.3065076670969
  0
LINE
  8
_0-0_
  6
CONTINUOUS
 62
    7
 10
1581.34705292024
 20
3199.34274906883
 11
1581.34705292024
 21
3190.3065076670969
  0
LINE
  8
_0-0_
  6
CONTINUOUS
 62
    7
 10
1599.9539763310927
 20
3183.634988878644
 11
1581.34705292024
 21
3190.3065076670969
  0
ARC
  8
_0-0_
  6
CONTINUOUS
 62
    7
 10
1596.5788647559511
 20
3174.2217736014209
 40
10
 50
1.9091524329966585
 51
70.274687314034622
  0
LINE
  8
_0-0_
  6
CONTINUOUS
 62
    7
 10
1606.5733138257428
 20
3174.5549219037475
 11
1608.34705292024
 21
3121.34274906883
  0
ARC
  8
_0-0_
  6
CONTINUOUS
 62
    7
 10
1542.1152410845289
 20
3174.2217736014209
 40
10
 50
109.72531268596539
 51
178.09084756700335
  0
LINE
  8
_0-0_
  6
CONTINUOUS
 62
    7
 10
1532.1207920147372
 20
3174.5549219037475
 11
1530.34705292024
 21
3121.34274906883
  0
LINE
  8
_0-0_
  6
CONTINUOUS
 62
    7
 10
1538.7401295093873
 20
3183.634988878644
 11
1557.34705292024
 21
3190.3065076670969
  0
ARC
  8
_0-0_
  6
CONTINUOUS
 62
    7
 10
1542.1152410845289
 20
3174.2217736014209
 40
5.5
 50
109.72531268596539
 51
178.09084756700335
  0
ARC
  8
_0-0_
  6
CONTINUOUS
 62
    7
 10
1596.5788647559511
 20
3174.2217736014209
 40
5.5
 50
1.9091524329966585
 51
70.274687314034622
  0
LINE
  8
_0-0_
  6
CONTINUOUS
 62
    7
 10
1598.435176122279
 20
3179.3990420038936
 11
1580.1995401959527
 21
3185.9374355370724
  0
ARC
  8
_0-0_
  6
CONTINUOUS
 62
    7
 10
1569.34705292024
 20
3121.34274906883
 40
65.5
 50
80.462863945225607
 51
99.537136054774408
  0
LINE
  8
_0-0_
  6
CONTINUOUS
 62
    7
 10
1540.258929718201
 20
3179.3990420038936
 11
1558.4945656445273
 21
3185.9374355370724
  0
LINE
  8
_0-0_
  6
CONTINUOUS
 62
    7
 10
1602.0758117443365
 20
3174.4050051677004
 11
1603.844553614299
 21
3121.34274906883
  0
LINE
  8
_0-0_
  6
CONTINUOUS
 62
    7
 10
1536.6182940961435
 20
3174.4050051677004
 11
1534.849552226181
 21
3121.34274906883
  0
LINE
  8
_0-0_
  6
CONTINUOUS
 62
    7
 10
1603.844553614299
 20
3121.34274906883
 11
1608.34705292024
 21
3121.34274906883
  0
LINE
  8
_0-0_
  6
CENTER1
 62
    7
 10
1569.34705292024
 20
3205.246840078491
 11
1569.34705292024
 21
3116.7889657260839
  0
CIRCLE
  8
_0-0_
  6
CONTINUOUS
 62
    7
 10
1569.34705292024
 20
3194.84274906883
 40
1.5
  0
ARC
  8
_0-0_
  6
CONTINUOUS
 62
    7
 10
1537.6705650880158
 20
3186.336600001513
 40
0.5
 50
104.45301667121211
 51
284.45301667121214
  0
ARC
  8
_0-0_
  6
CONTINUOUS
 62
    7
 10
1537.9202220814814
 20
3185.3679720278169
 40
0.5
 50
104.45301667121211
 51
284.45301667121214
  0
LINE
  8
_0-0_
  6
CONTINUOUS
 62
    7
 10
1569.2477576534197
 20
3195.8031532892992
 11
1537.545736591283
 21
3186.8209139883606
  0
ARC
  8
_0-0_
  6
CONTINUOUS
 62
    7
 10
1569.3869216602825
 20
3195.3229010303216
 40
0.5
 50
286.16014669256759
 51
106.16014669256761
  0
LINE
  8
_0-0_
  6
CONTINUOUS
 62
    7
 10
1537.7953968460229
 20
3185.8522869386925
 11
1569.5260856164591
 21
3194.8426487569823
  0
ARC
  8
_0-0_
  6
CONTINUOUS
 62
    7
 10
1569.6652496740085
 20
3194.3623965123661
 40
0.5
 50
286.16014669255503
 51
106.16014669256761
  0
LINE
  8
_0-0_
  6
CONTINUOUS
 62
    7
 10
1569.8044136301846
 20
3193.8821442390272
 11
1538.0450538394882
 21
3184.8836589649964
  0
LINE
  8
_0-0_
  6
CONTINUOUS
 62
    7
 10
1552.8438853157954
 20
3191.1553894603057
 11
1553.3701456306535
 21
3189.2257683058265
  0
LINE
  8
_0-0_
  6
CONTINUOUS
 62
    2
 10
1497.5864562663619
 20
3200.34274906883
 11
1552.0026233283452
 21
3200.34274906883
  0
LINE
  8
_0-0_
  6
CENTER1
 62
    7
 10
1524.9968534013731
 20
3121.34274906883
 11
1616.5843625111565
 21
3121.34274906883
  0
LINE
  8
_0-0_
  6
CONTINUOUS
 62
    7
 10
1505.5864562663619
 20
3200.34274906883
 11
1505.5864562663619
 21
3121.34274906883
  0
LINE
  8
_0-0_
  6
CONTINUOUS
 62
    7
 10
1534.849552226181
 20
3108.7495597423494
 11
1603.844553614299
 21
3108.7495597423494
  0
LINE
  8
_0-0_
  6
CONTINUOUS
 62
    7
 10
1530.34705292024
 20
3096.371915192487
 11
1608.34705292024
 21
3096.371915192487
  0
TEXT
  8
_0-0_
 62
    7
 10
1565.2965988612973
 20
3109.4639981002056
 40
8
 41
1
 50
0
  1
Ｄ
  0
TEXT
  8
_0-0_
 62
    7
 10
1566.1500975423794
 20
3097.0882672245161
 40
8
 41
1
 50
0
  1
ｄ
  0
TEXT
  8
_0-0_
 62
    7
 10
1512.0951810738511
 20
3160.2471696245866
 40
8
 41
1
 50
0
  1
Ｈ
  0
LINE
  8
_0-0_
  6
CONTINUOUS
 62
    2
 10
1534.849552226181
 20
3100.7495597423494
 11
1534.849552226181
 21
3117.1251648327752
  0
LINE
  8
_0-0_
  6
CONTINUOUS
 62
    2
 10
1603.844553614299
 20
3100.7495597423494
 11
1603.844553614299
 21
3117.1251648327752
  0
LINE
  8
_0-0_
  6
CONTINUOUS
 62
    2
 10
1530.34705292024
 20
3092.4199907082807
 11
1530.34705292024
 21
3117.1251648327752
  0
LINE
  8
_0-0_
  6
CONTINUOUS
 62
    2
 10
1608.34705292024
 20
3092.4199907082807
 11
1608.34705292024
 21
3117.1251648327752
  0
LINE
  8
_0-0_
  6
CONTINUOUS
 62
    2
 10
1505.5864562663619
 20
3200.34274906883
 11
1502.9069643420505
 21
3190.34274906883
  0
LINE
  8
_0-0_
  6
CONTINUOUS
 62
    2
 10
1505.5864562663619
 20
3200.34274906883
 11
1508.265948190673
 21
3190.34274906883
  0
LINE
  8
_0-0_
  6
CONTINUOUS
 62
    2
 10
1505.5864562663619
 20
3121.34274906883
 11
1502.9069643420505
 21
3131.34274906883
  0
LINE
  8
_0-0_
  6
CONTINUOUS
 62
    2
 10
1505.5864562663619
 20
3121.34274906883
 11
1508.265948190673
 21
3131.34274906883
  0
LINE
  8
_0-0_
  6
CONTINUOUS
 62
    2
 10
1530.34705292024
 20
3096.371915192487
 11
1540.34705292024
 21
3099.0514071167981
  0
LINE
  8
_0-0_
  6
CONTINUOUS
 62
    2
 10
1530.34705292024
 20
3096.371915192487
 11
1540.34705292024
 21
3093.6924232681758
  0
LINE
  8
_0-0_
  6
CONTINUOUS
 62
    2
 10
1608.34705292024
 20
3096.371915192487
 11
1598.34705292024
 21
3093.6924232681758
  0
LINE
  8
_0-0_
  6
CONTINUOUS
 62
    2
 10
1608.34705292024
 20
3096.371915192487
 11
1598.34705292024
 21
3099.0514071167981
  0
LINE
  8
_0-0_
  6
CONTINUOUS
 62
    2
 10
1534.849552226181
 20
3108.7495597423494
 11
1544.849552226181
 21
3111.4290516666606
  0
LINE
  8
_0-0_
  6
CONTINUOUS
 62
    2
 10
1534.849552226181
 20
3108.7495597423494
 11
1544.849552226181
 21
3106.0700678180383
  0
LINE
  8
_0-0_
  6
CONTINUOUS
 62
    2
 10
1603.844553614299
 20
3108.7495597423494
 11
1593.844553614299
 21
3106.0700678180383
  0
LINE
  8
_0-0_
  6
CONTINUOUS
 62
    2
 10
1603.844553614299
 20
3108.7495597423494
 11
1593.844553614299
 21
3111.4290516666606
  0
LINE
  8
_0-0_
  6
CONTINUOUS
 62
    2
 10
1497.5864562663619
 20
3121.34274906883
 11
1519.0800408467212
 21
3121.34274906883
  0
LINE
  8
_0-0_
  6
CONTINUOUS
 62
    7
 10
1665.1777550665001
 20
3246.8977518428319
 11
1475.1777550665001
 21
3246.8977518428319
  0
LINE
  8
_0-0_
  6
CONTINUOUS
 62
    7
 10
1475.1777550665001
 20
2966.8977518428319
 11
1665.1777550665001
 21
2966.8977518428319
  0
TEXT
  8
_0-0_
 62
    7
 10
1652.9101781367081
 20
2960.648979183662
 40
4
 41
1
 50
0
  1
01-6
  0
TEXT
  8
_0-0_
 62
    7
 10
1628.0500143652648
 20
2980.3234478737322
 40
4
 41
1.3999999999999999
 50
0
  1
製作者　伊東
  0
TEXT
  8
_0-0_
 62
    7
 10
1629.0241587136757
 20
2990.0648913578398
 40
4
 41
1
 50
0
  1
樹脂・鋳物ワンコ
  0
TEXT
  8
_0-0_
 62
    7
 10
1629.3488734964792
 20
2999.9686922333494
 40
4
 41
0.8
 50
0
  1
Ｄ－５Ｗ・Ｄ－５ＷＦ
  0
TEXT
  8
_0-0_
 62
    7
 10
1592.8184604310748
 20
2990.389606140644
 40
4
 41
2
 50
0
  1
製品名
  0
TEXT
  8
_0-0_
 62
    7
 10
1588.4348108632262
 20
2999.8063348419482
 40
4
 41
2
 50
0
  1
製品番号
  0
LINE
  8
_0-0_
  6
CONTINUOUS
 62
    7
 10
1585.1777550665001
 20
2976.8977518428319
 11
1665.1777550665001
 21
2976.8977518428319
  0
LINE
  8
_0-0_
  6
CONTINUOUS
 62
    7
 10
1585.1777550665001
 20
2966.8977518428319
 11
1585.1777550665001
 21
3006.8977518428319
  0
LINE
  8
_0-0_
  6
CONTINUOUS
 62
    7
 10
1485.1777550665001
 20
3009.8977518428319
 11
1655.1777550665001
 21
3009.8977518428319
  0
LINE
  8
_0-0_
  6
CONTINUOUS
 62
    7
 10
1485.1777550665001
 20
3056.8977518428319
 11
1485.1777550665001
 21
3009.8977518428319
  0
TEXT
  8
_0-0_
 62
    7
 10
1485.1755099316831
 20
3004.1899844097966
 40
4
 41
1
 50
0
  1
●椀（樹脂製）：特殊樹脂ロイマーＳ[Ｓ1420]成型
  0
TEXT
  8
_0-0_
 62
    7
 10
1487.1237986285046
 20
3013.9314278939046
 40
4
 41
1
 50
0
  1
Ｄ－１４Ｗ
  0
TEXT
  8
_0-0_
 62
    7
 10
1512.6139090785869
 20
3011.008994848672
 40
4
 41
1
 50
0
  1
Ｄ－14ＢＰ
  0
TEXT
  8
_0-0_
 62
    7
 10
1512.4515516871852
 20
3017.0162183305383
 40
4
 41
1
 50
0
  1
Ｄ－14ＡＰ
  0
TEXT
  8
_0-0_
 62
    7
 10
1543.6241708363302
 20
3017.1785757219404
 40
4
 41
1
 50
0
  1
４０
  0
TEXT
  8
_0-0_
 62
    7
 10
1568.1401369380017
 20
3017.0162183305383
 40
4
 41
1
 50
0
  1
７３
  0
TEXT
  8
_0-0_
 62
    7
 10
1618.9580004467643
 20
3014.0937852853062
 40
4
 41
1
 50
0
  1
８２
  0
TEXT
  8
_0-0_
 62
    7
 10
1638.1161726321764
 20
3014.0937852853062
 40
4
 41
1
 50
0
  1
樹脂製
  0
LINE
  8
_0-0_
  6
CONTINUOUS
 62
    7
 10
1535.1777550665001
 20
3015.8977518428319
 11
1610.1777550665001
 21
3015.8977518428319
  0
TEXT
  8
_0-0_
 62
    7
 10
1487.1237986285046
 20
3025.7835174662355
 40
4
 41
1
 50
0
  1
Ｄ－５ＷＦ
  0
TEXT
  8
_0-0_
 62
    7
 10
1543.7865282277321
 20
3023.1857992038067
 40
4
 41
1
 50
0
  1
５０
  0
TEXT
  8
_0-0_
 62
    7
 10
1568.4648517208052
 20
3023.1857992038067
 40
4
 41
1
 50
0
  1
７８
  0
TEXT
  8
_0-0_
 62
    7
 10
1568.1401369380017
 20
3028.8683079028697
 40
4
 41
1
 50
0
  1
７１
  0
TEXT
  8
_0-0_
 62
    7
 10
1593.4678899966821
 20
3029.0306652942718
 40
4
 41
1
 50
0
  1
６３
  0
TEXT
  8
_0-0_
 62
    7
 10
1618.308570881157
 20
3029.0306652942718
 40
4
 41
1
 50
0
  1
７７
  0
LINE
  8
_0-0_
  6
CONTINUOUS
 62
    7
 10
1535.1777550665001
 20
3027.8977518428319
 11
1635.1777550665001
 21
3027.8977518428319
  0
LINE
  8
_0-0_
  6
CONTINUOUS
 62
    7
 10
1610.1777550665001
 20
3033.8977518428319
 11
1635.1777550665001
 21
3033.8977518428319
  0
TEXT
  8
_0-0_
 62
    7
 10
1543.4618134449283
 20
3052.8972018303357
 40
4
 41
1
 50
0
  1
６５
  0
TEXT
  8
_0-0_
 62
    7
 10
1543.4618134449283
 20
3058.904425312202
 40
4
 41
1
 50
0
  1
５０
  0
TEXT
  8
_0-0_
 62
    7
 10
1543.4618134449283
 20
3065.0740061854704
 40
4
 41
1
 50
0
  1
４０
  0
TEXT
  8
_0-0_
 62
    7
 10
1541.6758821395088
 20
3070.7565148845333
 40
4
 41
1
 50
0
  1
呼　び
  0
TEXT
  8
_0-0_
 62
    7
 10
1566.3542056325819
 20
3034.875531384736
 40
4
 41
1
 50
0
  1
２０６
  0
TEXT
  8
_0-0_
 62
    7
 10
1566.3542056325819
 20
3041.3698270408081
 40
4
 41
1
 50
0
  1
１６０
  0
TEXT
  8
_0-0_
 62
    7
 10
1569.1142812864123
 20
3059.2291400950057
 40
4
 41
1
 50
0
  1
７８
  0
TEXT
  8
_0-0_
 62
    7
 10
1568.9519238950106
 20
3065.2363635768725
 40
4
 41
1
 50
0
  1
７３
  0
TEXT
  8
_0-0_
 62
    7
 10
1566.5165630239835
 20
3070.9188722759354
 40
4
 41
1
 50
0
  1
外径ｄ
  0
TEXT
  8
_0-0_
 62
    7
 10
1591.6819586912623
 20
3034.875531384736
 40
4
 41
1
 50
0
  1
１９４
  0
TEXT
  8
_0-0_
 62
    7
 10
1591.8443160826641
 20
3041.0451122580043
 40
4
 41
1
 50
0
  1
１４５
  0
TEXT
  8
_0-0_
 62
    7
 10
1591.6819586912623
 20
3047.0523357398711
 40
4
 41
1
 50
0
  1
１０５
  0
TEXT
  8
_0-0_
 62
    7
 10
1593.9549621708875
 20
3052.734844438934
 40
4
 41
1
 50
0
  1
９２
  0
TEXT
  8
_0-0_
 62
    7
 10
1593.4678899966821
 20
3058.7420679208008
 40
4
 41
1
 50
0
  1
６９
  0
TEXT
  8
_0-0_
 62
    7
 10
1593.1431752138783
 20
3064.9116487940687
 40
4
 41
1
 50
0
  1
６５
  0
TEXT
  8
_0-0_
 62
    7
 10
1591.0325291256549
 20
3071.0812296673371
 40
4
 41
1
 50
0
  1
内径Ｄ
  0
TEXT
  8
_0-0_
 62
    7
 10
1616.3602821843356
 20
3040.720397475201
 40
4
 41
1
 50
0
  1
１１７
  0
TEXT
  8
_0-0_
 62
    7
 10
1618.1462134897552
 20
3046.8899783484694
 40
4
 41
1
 50
0
  1
７７
  0
TEXT
  8
_0-0_
 62
    7
 10
1618.308570881157
 20
3053.0595592217378
 40
4
 41
1
 50
0
  1
８０
  0
TEXT
  8
_0-0_
 62
    7
 10
1618.308570881157
 20
3061.9892157488366
 40
4
 41
1
 50
0
  1
８２
  0
LINE
  8
_0-0_
  6
CONTINUOUS
 62
    7
 10
1535.1777550665001
 20
3063.8977518428319
 11
1610.1777550665001
 21
3063.8977518428319
  0
LINE
  8
_0-0_
  6
CONTINUOUS
 62
    7
 10
1535.1777550665001
 20
3057.8977518428319
 11
1655.1777550665001
 21
3057.8977518428319
  0
TEXT
  8
_0-0_
 62
    7
 10
1616.3602821843356
 20
3071.0812296673371
 40
4
 41
1
 50
0
  1
高さＨ
  0
TEXT
  8
_0-0_
 62
    7
 10
1639.0903169805872
 20
3070.9188722759354
 40
4
 41
1
 50
0
  1
材　質
  0
TEXT
  8
_0-0_
 62
    7
 10
1639.0903169805872
 20
3061.9892157488366
 40
4
 41
1
 50
0
  1
樹脂製
  0
TEXT
  8
_0-0_
 62
    7
 10
1639.0903169805872
 20
3037.7979644299685
 40
4
 41
1
 50
0
  1
鋳鉄製
  0
LINE
  8
_0-0_
  6
CONTINUOUS
 62
    7
 10
1485.1777550665001
 20
3075.8977518428319
 11
1655.1777550665001
 21
3075.8977518428319
  0
LINE
  8
_0-0_
  6
CONTINUOUS
 62
    7
 10
1485.1777550665001
 20
3069.8977518428319
 11
1655.1777550665001
 21
3069.8977518428319
  0
TEXT
  8
_0-0_
 62
    7
 10
1490.8580186307461
 20
3070.9188722759354
 40
4
 41
1
 50
0
  1
品　番
  0
TEXT
  8
_0-0_
 62
    7
 10
1515.6986995152211
 20
3071.0812296673371
 40
4
 41
1
 50
0
  1
用　途
  0
TEXT
  8
_0-0_
 62
    7
 10
1513.7504108183994
 20
3048.675909653889
 40
4
 41
1
 50
0
  1
Ｄ－５Ａ
  0
LINE
  8
_0-0_
  6
CONTINUOUS
 62
    7
 10
1485.1777550665001
 20
3075.8977518428319
 11
1485.1777550665001
 21
3056.8977518428319
  0
LINE
  8
_0-0_
  6
CONTINUOUS
 62
    7
 10
1510.1777550665001
 20
3009.8977518428319
 11
1510.1777550665001
 21
3075.8977518428319
  0
LINE
  8
_0-0_
  6
CONTINUOUS
 62
    7
 10
1535.1777550665001
 20
3009.8977518428319
 11
1535.1777550665001
 21
3075.8977518428319
  0
LINE
  8
_0-0_
  6
CONTINUOUS
 62
    7
 10
1560.1777550665001
 20
3009.8977518428319
 11
1560.1777550665001
 21
3075.8977518428319
  0
LINE
  8
_0-0_
  6
CONTINUOUS
 62
    7
 10
1585.1777550665001
 20
3009.8977518428319
 11
1585.1777550665001
 21
3075.8977518428319
  0
LINE
  8
_0-0_
  6
CONTINUOUS
 62
    7
 10
1610.1777550665001
 20
3009.8977518428319
 11
1610.1777550665001
 21
3075.8977518428319
  0
LINE
  8
_0-0_
  6
CONTINUOUS
 62
    7
 10
1635.1777550665001
 20
3009.8977518428319
 11
1635.1777550665001
 21
3075.8977518428319
  0
LINE
  8
_0-0_
  6
CONTINUOUS
 62
    7
 10
1655.1777550665001
 20
3009.8977518428319
 11
1655.1777550665001
 21
3075.8977518428319
  0
LINE
  8
_0-0_
  6
CONTINUOUS
 62
    7
 10
1475.1777550665001
 20
3246.8977518428319
 11
1475.1777550665001
 21
2966.8977518428319
  0
LINE
  8
_0-0_
  6
CONTINUOUS
 62
    7
 10
1665.1777550665001
 20
2966.8977518428319
 11
1665.1777550665001
 21
3246.8977518428319
  0
TEXT
  8
_0-0_
 62
    7
 10
1483.6594379638993
 20
3234.6535403245221
 40
5.5999999999999996
 41
0.7142857142857143
 50
0
  1
Ｄ－５Ａ（Ｓ）・Ｄ－５Ｂ（Ｓ）用ワン・Ｄ－１４ＡＰ・ＢＰ（Ｔ）用ワン
  0
TEXT
  8
_0-0_
 62
    7
 10
1594.0680984525306
 20
3010.9971469300808
 40
4
 41
1
 50
0
  1
７７
  0
LINE
  8
_0-0_
  6
CONTINUOUS
 62
    7
 10
1485.1777550665001
 20
3033.8977518428319
 11
1510.1777550665001
 21
3033.8977518428319
  0
LINE
  8
_0-0_
  6
CONTINUOUS
 62
    7
 10
1535.1777550665001
 20
3033.8977518428319
 11
1610.1777550665001
 21
3033.8977518428319
  0
TEXT
  8
_0-0_
 62
    7
 10
1489.0628695245684
 20
3048.7576479731415
 40
4
 41
1
 50
0
  1
Ｄ－５Ｗ
  0
TEXT
  8
_0-0_
 62
    7
 10
1482.4268766411899
 20
3221.8039239320115
 40
9.5999999999999996
 41
0.8333333333333333
 50
0
  1
Ｄ－５Ｗ・Ｄ－５ＷＦ
  0
LINE
  8
_0-0_
  6
DASHED1
 62
    7
 10
1535.0162188928477
 20
3126.34274906883
 11
1544.34705292024
 21
3141.34274906883
  0
LINE
  8
_0-0_
  6
DASHED1
 62
    7
 10
1544.34705292024
 20
3176.34274906883
 11
1549.34705292024
 21
3176.34274906883
  0
LINE
  8
_0-0_
  6
DASHED1
 62
    7
 10
1549.34705292024
 20
3176.34274906883
 11
1549.34705292024
 21
3182.6575917036689
  0
LINE
  8
_0-0_
  6
DASHED1
 62
    7
 10
1544.34705292024
 20
3141.34274906883
 11
1544.34705292024
 21
3176.34274906883
  0
TEXT
  8
_0-0_
 62
    7
 10
1616.5024147699016
 20
3034.9464052311455
 40
4
 41
1
 50
0
  1
１００
  0
TEXT
  8
_0-0_
 62
    7
 10
1618.61659658853
 20
3023.1318597741047
 40
4
 41
1
 50
0
  1
８２
  0
TEXT
  8
_0-0_
 62
    7
 10
1543.2522329362494
 20
3046.885314324576
 40
4
 41
1
 50
0
  1
７５
  0
TEXT
  8
_0-0_
 62
    7
 10
1541.138051117621
 20
3041.1645870506409
 40
4
 41
1
 50
0
  1
１００
  0
TEXT
  8
_0-0_
 62
    7
 10
1540.6405965720614
 20
3035.0707688675357
 40
4
 41
1
 50
0
  1
１２５
  0
TEXT
  8
_0-0_
 62
    7
 10
1543.7496874818089
 20
3028.9769506844304
 40
4
 41
1
 50
0
  1
４０
  0
TEXT
  8
_0-0_
 62
    7
 10
1543.7496874818089
 20
3010.9442234078942
 40
4
 41
1
 50
0
  1
５０
  0
TEXT
  8
_0-0_
 62
    7
 10
1567.8762329414499
 20
3010.6954961351148
 40
4
 41
1
 50
0
  1
８５
  0
TEXT
  8
_0-0_
 62
    7
 10
1593.7438693105496
 20
3016.6649506818299
 40
4
 41
1
 50
0
  1
６５
  0
TEXT
  8
_0-0_
 62
    7
 10
1593.7438693105496
 20
3022.8831325013252
 40
4
 41
1
 50
0
  1
６９
  0
TEXT
  8
_0-0_
 62
    7
 10
1566.383869304771
 20
3046.885314324576
 40
4
 41
1
 50
0
  1
１１５
  0
TEXT
  8
_0-0_
 62
    7
 10
1566.5082329411612
 20
3052.8547688712915
 40
4
 41
1
 50
0
  1
１００
  0
TEXT
  8
_0-0_
 62
    7
 10
1485.6695845188078
 20
3077.7015410306817
 40
4
 41
1
 50
0
  1
■寸法表（単位：ｍｍ）
  0
TEXT
  8
_0-0_
 62
    7
 10
1485.0747848338665
 20
2998.9067964127494
 40
4
 41
1
 50
0
  1
●椀（鋳鉄製）：ＦＣ－１５　鋳鉄タール焼付塗装
  0
TEXT
  8
_0-0_
 62
    7
 10
1485.0747848338665
 20
2993.7211873814745
 40
4
 41
1
 50
0
  1
●リング　　　：ＳＵＳ３０４　ステンレス製
  0
TEXT
  8
_0-0_
 62
    7
 10
1485.169068634435
 20
2988.6298621507685
 40
4
 41
1
 50
0
  1
●Ｄ－５Ｗ　１００用は足付になります。
  0
TEXT
  8
_0-0_
 62
    7
 10
1513.7370602067313
 20
3039.7316820589676
 40
4
 41
1
 50
0
  1
Ｄ－５Ｂ
  0
TEXT
  8
_0-0_
 62
    7
 10
1586.3355866445793
 20
2981.841428509827
 40
4
 41
1
 50
0
  1
製作年月日
  0
TEXT
  8
_0-0_
 62
    7
 10
1598.4039131173645
 20
2977.3158060825322
 40
4
 41
0.8
 50
0
  1
令和元年６月４日
  0
LINE
  8
_0-0_
  6
CONTINUOUS
 62
    7
 10
1625.1777550665001
 20
2976.8977518428319
 11
1625.1777550665001
 21
3006.8977518428319
  0
TEXT
  8
_0-0_
 62
    7
 10
1593.6897230889326
 20
2968.830264031355
 40
6.4000000000000004
 41
1.25
 50
0
  1
株式会社　アウス
  0
ENDSEC
  0
EOF
