  0
SECTION
  2
HEADER
  9
$ACADVER
  1
AC1009
  9
$INSBASE
 10
0
 20
0
 30
0
  9
$EXTMIN
 10
0
 20
0
  9
$EXTMAX
 10
4752
 20
3360
  9
$LIMMIN
 10
0
 20
0
  9
$LIMMAX
 10
4752
 20
3360
  9
$LTSCALE
 40
8
  0
ENDSEC
  0
SECTION
  2
TABLES
  0
TABLE
  2
LTYPE
 70
     9
  0
LTYPE
  2
CONTINUOUS
 70
    64
  3
実線
 72
    65
 73
     0
 40
0.0
  0
LTYPE
  2
DASHED1
 70
    64
  3
--  --  --  --  --  --  --  --  
 72
    65
 73
     2
 40
2.5
 49
1.25
 49
-1.25
  0
LTYPE
  2
DASHED2
 70
    64
  3
----    ----    ----    ----    
 72
    65
 73
     2
 40
5.0
 49
2.5
 49
-2.5
  0
LTYPE
  2
DASHED3
 70
    64
  3
------  ------  ------  ------  
 72
    65
 73
     2
 40
5.0
 49
3.75
 49
-1.25
  0
LTYPE
  2
CENTER1
 70
    64
  3
----- - ----- - ----- - ----- - 
 72
    65
 73
     4
 40
10.0
 49
6.25
 49
-1.25
 49
1.25
 49
-1.25
  0
LTYPE
  2
CENTER2
 70
    64
  3
----------  --  ----------  --  
 72
    65
 73
     4
 40
20.0
 49
12.5
 49
-2.5
 49
2.5
 49
-2.5
  0
LTYPE
  2
PHANTOM1
 70
    64
  3
--- - - --- - - --- - - --- - - 
 72
    65
 73
     6
 40
10.0
 49
3.25
 49
-1.25
 49
1.25
 49
-1.25
 49
1.25
 49
-1.25
  0
LTYPE
  2
PHANTOM2
 70
    64
  3
--------  -  -  --------  -  -  
 72
    65
 73
     6
 40
20.0
 49
10.0
 49
-2.5
 49
1.25
 49
-2.5
 49
1.25
 49
-2.5
  0
LTYPE
  2
DOT
 70
    64
  3
-   -   -   -   -   -   -   -   
 72
    65
 73
     2
 40
2.5
 49
0.625
 49
-1.875
  0
LTYPE
  2
DUMMY
 70
    64
  3
ダミー
 72
    65
 73
     0
 40
0.0
  0
LTYPE
  2
RAND1
 70
    64
  3
ランダム線1
 72
    65
 73
     4
 40
10.0
 49
1.0
 49
-2.0
 49
3.0
 49
-4.0
  0
LTYPE
  2
RAND2
 70
    64
  3
ランダム線2
 72
    65
 73
     4
 40
14.0
 49
2.0
 49
-3.0
 49
4.0
 49
-5.0
  0
LTYPE
  2
RAND3
 70
    64
  3
ランダム線3
 72
    65
 73
     4
 40
18.0
 49
3.0
 49
-4.0
 49
5.0
 49
-6.0
  0
LTYPE
  2
RAND4
 70
    64
  3
ランダム線4
 72
    65
 73
     4
 40
22.0
 49
4.0
 49
-5.0
 49
6.0
 49
-7.0
  0
LTYPE
  2
RAND5
 70
    64
  3
ランダム線5
 72
    65
 73
     4
 40
26.0
 49
5.0
 49
-6.0
 49
7.0
 49
-8.0
  0
LTYPE
  2
LONG1
 70
    64
  3
----------  --  ----------  --  
 72
    65
 73
     4
 40
40.0
 49
32.5
 49
-2.5
 49
2.5
 49
-2.5
  0
LTYPE
  2
LONG2
 70
    64
  3
--------  -  -  --------  -  -  
 72
    65
 73
     6
 40
40.0
 49
30.0
 49
-2.5
 49
1.25
 49
-2.5
 49
1.25
 49
-2.5
  0
LTYPE
  2
LONG3
 70
    64
  3
+++++++++++++++..+++++++++++++++
 72
    65
 73
     2
 40
40.0
 49
37.5
 49
-2.5
  0
LTYPE
  2
LONG4
 70
    64
  3
+++++++++++++++..+++++++++++++++
 72
    65
 73
     2
 40
80.0
 49
75.0
 49
-5.0
  0
LTYPE
  2
LONG5
 70
    64
  3
----------  --  ----------  --  
 72
    65
 73
     4
 40
60.0
 49
37.5
 49
-7.5
 49
7.5
 49
-7.5
  0
LTYPE
  2
dashed
 70
   64
  3
-------   -------------   ------
 72
   65
 73
    2
 40
7.5
 49
6
 49
-1.5
  0
LTYPE
  2
dashed_spaced
 70
   64
  3
----        --------        ----
 72
   65
 73
    2
 40
12
 49
6
 49
-6
  0
LTYPE
  2
long_dashed_dotted
 70
   64
  3
------------- --- --------------
 72
   65
 73
    4
 40
15.25
 49
12
 49
-1.5
 49
0.25
 49
-1.5
  0
LTYPE
  2
long_dashed_double-dotted
 70
   64
  3
----------- --- --- ------------
 72
   65
 73
    6
 40
17
 49
12
 49
-1.5
 49
0.25
 49
-1.5
 49
0.25
 49
-1.5
  0
LTYPE
  2
long_dashed_triplicate-dotted
 70
   64
  3
--------- --- --- --- ----------
 72
   65
 73
    8
 40
18.75
 49
12
 49
-1.5
 49
0.25
 49
-1.5
 49
0.25
 49
-1.5
 49
0.25
 49
-1.5
  0
LTYPE
  2
dotted
 70
   64
  3
   -       -       -       -    
 72
   65
 73
    2
 40
1.75
 49
0.25
 49
-1.5
  0
LTYPE
  2
chain
 70
   64
  3
-------------- -- --------------
 72
   65
 73
    4
 40
18.5
 49
12
 49
-1.5
 49
3.5
 49
-1.5
  0
LTYPE
  2
chain_double_dash
 70
   64
  3
------------ -- -- -------------
 72
   65
 73
    6
 40
23.5
 49
12
 49
-1.5
 49
3.5
 49
-1.5
 49
3.5
 49
-1.5
  0
LTYPE
  2
dashed_dotted
 70
   64
  3
-----------     -     ----------
 72
   65
 73
    4
 40
9.25
 49
6
 49
-1.5
 49
0.25
 49
-1.5
  0
LTYPE
  2
double-dashed_dotted
 70
   64
  3
------   -----------   -   -----
 72
   65
 73
    6
 40
16.75
 49
6
 49
-1.5
 49
6
 49
-1.5
 49
0.25
 49
-1.5
  0
LTYPE
  2
dashed_double-dotted
 70
   64
  3
---------    -    -    ---------
 72
   65
 73
    6
 40
11
 49
6
 49
-1.5
 49
0.25
 49
-1.5
 49
0.25
 49
-1.5
  0
LTYPE
  2
double-dashed_double-dotted
 70
   64
  3
-----   ---------   -   -   ----
 72
   65
 73
    8
 40
18.5
 49
6
 49
-1.5
 49
6
 49
-1.5
 49
0.25
 49
-1.5
 49
0.25
 49
-1.5
  0
LTYPE
  2
dashed_triplicate-dotted
 70
   64
  3
-------    -    -    -    ------
 72
   65
 73
    8
 40
12.75
 49
6
 49
-1.5
 49
0.25
 49
-1.5
 49
0.25
 49
-1.5
 49
0.25
 49
-1.5
  0
LTYPE
  2
double-dashed_triplicate-dotted
 70
   64
  3
-----  ---------  -  -  -  -----
 72
   65
 73
   10
 40
20.25
 49
6
 49
-1.5
 49
6
 49
-1.5
 49
0.25
 49
-1.5
 49
0.25
 49
-1.5
 49
0.25
 49
-1.5
  0
LTYPE
  2
undefined
 70
   64
  3
--------------------------------
 72
   65
 73
    0
 40
0
  0
LTYPE
  2
_
 70
   64
  3
                                
 72
   65
 73
    0
 40
0
  0
LTYPE
  2
__18
 70
   64
  3
                                
 72
   65
 73
    0
 40
0
  0
LTYPE
  2
__19
 70
   64
  3
                                
 72
   65
 73
    0
 40
0
  0
LTYPE
  2
__20
 70
   64
  3
                                
 72
   65
 73
    0
 40
0
  0
LTYPE
  2
__21
 70
   64
  3
                                
 72
   65
 73
    0
 40
0
  0
LTYPE
  2
__22
 70
   64
  3
                                
 72
   65
 73
    0
 40
0
  0
LTYPE
  2
__23
 70
   64
  3
                                
 72
   65
 73
    0
 40
0
  0
LTYPE
  2
__24
 70
   64
  3
                                
 72
   65
 73
    0
 40
0
  0
LTYPE
  2
__25
 70
   64
  3
                                
 72
   65
 73
    0
 40
0
  0
LTYPE
  2
__26
 70
   64
  3
                                
 72
   65
 73
    0
 40
0
  0
LTYPE
  2
__27
 70
   64
  3
                                
 72
   65
 73
    0
 40
0
  0
LTYPE
  2
__28
 70
   64
  3
                                
 72
   65
 73
    0
 40
0
  0
LTYPE
  2
__29
 70
   64
  3
                                
 72
   65
 73
    0
 40
0
  0
LTYPE
  2
__30
 70
   64
  3
                                
 72
   65
 73
    0
 40
0
  0
LTYPE
  2
__31
 70
   64
  3
                                
 72
   65
 73
    0
 40
0
  0
LTYPE
  2
__32
 70
   64
  3
                                
 72
   65
 73
    0
 40
0
  0
ENDTAB
  0
TABLE
  2
STYLE
  5
3
100
AcDbSymbolTable
 70
     1
  0
STYLE
  5
10
100
AcDbSymbolTableRecord
100
AcDbTextStyleTableRecord
  2
STANDARD
 70
     0
 40
0.0
 41
1.0
 50
0.0
 71
     0
 42
0.2
  3
txt
  4
bigfont.shx
  0
STYLE
  5
26
100
AcDbSymbolTableRecord
100
AcDbTextStyleTableRecord
  2
TATEGAKI
 70
    68
 40
0.0
 41
1.0
 50
0.0
 71
     0
 42
1.0
  3
txt
  4
bigfont.shx
  0
ENDTAB
  0
TABLE
  2
LAYER
 70
    2
  0
LAYER
  2
_0-0_
 70
   64
 62
    7
  6
CONTINUOUS
  0
LAYER
  2
ADD_LINE
 70
   64
 62
    7
  6
CONTINUOUS
  0
ENDTAB
  0
ENDSEC
  0
SECTION
  2
BLOCKS
  0
ENDSEC
  0
SECTION
  2
ENTITIES
  0
LINE
  8
_0-0_
  6
CENTER1
 62
    7
 10
1564.0144903231176
 20
3137.1191910680263
 11
1564.0144903231176
 21
3119.4281325293405
  0
LINE
  8
_0-0_
  6
CONTINUOUS
 62
    7
 10
1605.1777550665001
 20
3006.8977518428319
 11
1685.1777550665001
 21
3006.8977518428319
  0
LINE
  8
_0-0_
  6
CONTINUOUS
 62
    7
 10
1605.1777550665001
 20
3016.8977518428319
 11
1685.1777550665001
 21
3016.8977518428319
  0
LINE
  8
_0-0_
  6
CONTINUOUS
 62
    7
 10
1605.1777550665001
 20
3026.8977518428319
 11
1685.1777550665001
 21
3026.8977518428319
  0
LINE
  8
_0-0_
  6
CONTINUOUS
 62
    7
 10
1495.1777550665001
 20
2986.8977518428319
 11
1685.1777550665001
 21
2986.8977518428319
  0
LINE
  8
_0-0_
  6
CONTINUOUS
 62
    7
 10
1605.1777550665001
 20
2996.8977518428319
 11
1685.1777550665001
 21
2996.8977518428319
  0
TEXT
  8
_0-0_
 62
    7
 10
1612.7912332241058
 20
3009.9516342497732
 40
4
 41
2
 50
0
  1
サイズ
  0
TEXT
  8
_0-0_
 62
    7
 10
1613.1080366690867
 20
3020.4061479341372
 40
4
 41
2
 50
0
  1
製品名
  0
TEXT
  8
_0-0_
 62
    7
 10
1608.3559849943754
 20
3029.5934478385789
 40
4
 41
2
 50
0
  1
製品番号
  0
LINE
  8
_0-0_
  6
CONTINUOUS
 62
    7
 10
1685.1777550665001
 20
3266.8977518428319
 11
1495.1777550665001
 21
3266.8977518428319
  0
LINE
  8
_0-0_
  6
CONTINUOUS
 62
    7
 10
1495.1777550665001
 20
3266.8977518428319
 11
1495.1777550665001
 21
2986.8977518428319
  0
LINE
  8
_0-0_
  6
CONTINUOUS
 62
    7
 10
1685.1777550665001
 20
2986.8977518428319
 11
1685.1777550665001
 21
3266.8977518428319
  0
LINE
  8
_0-0_
  6
CONTINUOUS
 62
    7
 10
1605.1777550665001
 20
2986.8977518428319
 11
1605.1777550665001
 21
3036.8977518428319
  0
LINE
  8
_0-0_
  6
CONTINUOUS
 62
    7
 10
1503.9081846891968
 20
3036.8977518428319
 11
1503.9081846891968
 21
3015.8977518428319
  0
LINE
  8
_0-0_
  6
CONTINUOUS
 62
    7
 10
1513.9081846891968
 20
3036.8977518428319
 11
1513.9081846891968
 21
3015.8977518428319
  0
TEXT
  8
_0-0_
 62
    7
 10
1506.7514093353229
 20
3017.1010639763499
 40
4
 41
1
 50
0
  1
２
  0
TEXT
  8
_0-0_
 62
    7
 10
1506.7514093353229
 20
3024.5422409544735
 40
4
 41
1
 50
0
  1
１
  0
TEXT
  8
_0-0_
 62
    7
 10
1504.6748018065441
 20
3031.1181647956064
 40
4
 41
1
 50
0
  1
Ｎｏ
  0
TEXT
  8
_0-0_
 62
    7
 10
1505.1074283750397
 20
3038.2132405189341
 40
4
 41
1
 50
0
  1
■部品構成
  0
LINE
  8
_0-0_
  6
CONTINUOUS
 62
    7
 10
1605.1777550665001
 20
3036.8977518428319
 11
1685.1777550665001
 21
3036.8977518428319
  0
TEXT
  8
_0-0_
 62
    7
 10
1631.8354721442033
 20
3158.9772325063432
 40
4
 41
1
 50
0
  1
①
  0
TEXT
  8
_0-0_
 62
    7
 10
1633.9019106081125
 20
3206.8889186920323
 40
4
 41
1
 50
0
  1
②
  0
LINE
  8
_0-0_
  6
CONTINUOUS
 62
    7
 10
1631.003697867181
 20
3208.7998739760087
 11
1604.2305131786707
 21
3208.7998739760087
  0
LINE
  8
_0-0_
  6
CONTINUOUS
 62
    7
 10
1601.2678370246108
 20
3160.9627914776975
 11
1629.502326808519
 21
3160.9627914776975
  0
LINE
  8
_0-0_
  6
CONTINUOUS
 62
    7
 10
1577.2445910550766
 20
3136.9395455081631
 11
1601.2678370246108
 21
3160.9627914776975
  0
LINE
  8
_0-0_
  6
CONTINUOUS
 62
    2
 10
1577.2445910550766
 20
3136.9395455081631
 11
1581.2445910550766
 21
3143.8677487384389
  0
LINE
  8
_0-0_
  6
CONTINUOUS
 62
    2
 10
1577.2445910550766
 20
3136.9395455081631
 11
1584.1727942853522
 21
3140.9395455081631
  0
TEXT
  8
_0-0_
 62
    7
 10
1648.8206180377597
 20
3030.2369807123869
 40
4
 41
1
 50
0
  1
Ｄ－３Ｖ－ＶＰ
  0
TEXT
  8
_0-0_
 62
    7
 10
1645.8486288897393
 20
3019.669908186092
 40
4
 41
1
 50
0
  1
排水用目皿（ＶＰ用）
  0
LINE
  8
_0-0_
  6
CONTINUOUS
 62
    7
 10
1538.9081846891968
 20
3036.8977518428319
 11
1538.9081846891968
 21
3015.8977518428319
  0
LINE
  8
_0-0_
  6
CONTINUOUS
 62
    7
 10
1563.9081846891968
 20
3036.8977518428319
 11
1563.9081846891968
 21
3015.8977518428319
  0
LINE
  8
_0-0_
  6
CONTINUOUS
 62
    7
 10
1593.9081846891968
 20
3036.8977518428319
 11
1593.9081846891968
 21
3015.8977518428319
  0
LINE
  8
_0-0_
  6
CONTINUOUS
 62
    7
 10
1503.9081846891968
 20
3036.8977518428319
 11
1593.9081846891968
 21
3036.8977518428319
  0
LINE
  8
_0-0_
  6
CONTINUOUS
 62
    7
 10
1503.9081846891968
 20
3029.8977518428319
 11
1593.9081846891968
 21
3029.8977518428319
  0
LINE
  8
_0-0_
  6
CONTINUOUS
 62
    7
 10
1503.9081846891968
 20
3015.8977518428319
 11
1593.9081846891968
 21
3015.8977518428319
  0
TEXT
  8
_0-0_
 62
    7
 10
1564.9444798602958
 20
3020.9907922518787
 40
4
 41
1
 50
0
  1
クロームメッキ
  0
TEXT
  8
_0-0_
 62
    7
 10
1568.9071320576563
 20
3031.4753095240621
 40
4
 41
1
 50
0
  1
備　　　考
  0
TEXT
  8
_0-0_
 62
    7
 10
1544.3882215864883
 20
3031.3101990158384
 40
4
 41
1
 50
0
  1
材　質
  0
TEXT
  8
_0-0_
 62
    7
 10
1542.7371165042546
 20
3020.9082369977673
 40
4
 41
1
 50
0
  1
ＣＡＣ203
  0
TEXT
  8
_0-0_
 62
    7
 10
1519.7867558612083
 20
3031.5578647781736
 40
4
 41
1
 50
0
  1
部品名
  0
TEXT
  8
_0-0_
 62
    7
 10
1519.7867558612083
 20
3024.6232234327927
 40
4
 41
1
 50
0
  1
本体枠
  0
TEXT
  8
_0-0_
 62
    7
 10
1516.071769426183
 20
3017.6060268333003
 40
4
 41
1
 50
0
  1
ストレーナ
  0
LINE
  8
_0-0_
  6
CONTINUOUS
 62
    7
 10
1503.9081846891968
 20
3022.8977518428319
 11
1538.9081846891968
 21
3022.8977518428319
  0
TEXT
  8
_0-0_
 62
    7
 10
1504.1012575799898
 20
3009.4330566762442
 40
4
 41
1
 50
0
  1
※ストレーナーはネジ込式
  0
TEXT
  8
_0-0_
 62
    7
 10
1504.1838128341014
 20
3004.2320756672084
 40
4
 41
1
 50
0
  1
※25Ａ・30Ａはテーパー加工しています
  0
LINE
  8
_0-0_
  6
CONTINUOUS
 62
    2
 10
1611.6545082563748
 20
3134.8463174563226
 11
1609.5839558955547
 21
3142.5737240666349
  0
LINE
  8
_0-0_
  6
CONTINUOUS
 62
    2
 10
1611.6545082563748
 20
3134.8463174563226
 11
1613.7250606171951
 21
3142.5737240666349
  0
LINE
  8
_0-0_
  6
CONTINUOUS
 62
    2
 10
1611.6545082563748
 20
3131.8463174563226
 11
1609.5839558955547
 21
3124.1189108460103
  0
LINE
  8
_0-0_
  6
CONTINUOUS
 62
    2
 10
1611.6545082563748
 20
3131.8463174563226
 11
1613.7250606171951
 21
3124.1189108460103
  0
LINE
  8
_0-0_
  6
CONTINUOUS
 62
    2
 10
1619.6545082563748
 20
3134.8463174563226
 11
1589.7316850661775
 21
3134.8463174563226
  0
TEXT
  8
_0-0_
 62
    7
 10
1609.5549117401902
 20
3132.3769855217515
 40
4
 41
1
 50
90
  1
3
  0
LINE
  8
_0-0_
  6
CONTINUOUS
 62
    7
 10
1611.6545082563748
 20
3134.8463174563226
 11
1611.6545082563748
 21
3131.8463174563226
  0
TEXT
  8
_0-0_
 62
    7
 10
1507.0560266136558
 20
3252.6414864700391
 40
8
 41
1
 50
0
  1
排水用目皿（ＶＰ専用）
  0
TEXT
  8
_0-0_
 62
    7
 10
1654.4438742287507
 20
3009.9409958074248
 40
4
 41
1.3999999999999999
 50
0
  1
３０Ａ
  0
LINE
  8
_0-0_
  6
CONTINUOUS
 62
    7
 10
1543.5144903231176
 20
3134.8463174563226
 11
1543.5144903231176
 21
3131.8463174563226
  0
LINE
  8
_0-0_
  6
CONTINUOUS
 62
    7
 10
1543.5144903231176
 20
3134.8463174563226
 11
1584.5144903231176
 21
3134.8463174563226
  0
LINE
  8
_0-0_
  6
CONTINUOUS
 62
    7
 10
1543.5144903231176
 20
3131.8463174563226
 11
1584.5144903231176
 21
3131.8463174563226
  0
LINE
  8
_0-0_
  6
CONTINUOUS
 62
    7
 10
1584.5144903231176
 20
3134.8463174563226
 11
1584.5144903231176
 21
3131.8463174563226
  0
LINE
  8
_0-0_
  6
DASHED1
 62
    7
 10
1549.5144903231176
 20
3134.8463174563226
 11
1549.5144903231176
 21
3131.8463174563226
  0
LINE
  8
_0-0_
  6
DASHED1
 62
    7
 10
1578.5144903231176
 20
3134.8463174563226
 11
1578.5144903231176
 21
3131.8463174563226
  0
CIRCLE
  8
_0-0_
  6
CONTINUOUS
 62
    7
 10
1564.0144903231176
 20
3169.4867883298239
 40
20.5
  0
LINE
  8
_0-0_
  6
CENTER1
 62
    7
 10
1564.0144903231176
 20
3193.1838602909979
 11
1564.0144903231176
 21
3146.5184741778166
  0
LINE
  8
_0-0_
  6
CENTER1
 62
    7
 10
1539.8579500333067
 20
3169.4867883298239
 11
1588.1493077880623
 21
3169.4867883298239
  0
CIRCLE
  8
_0-0_
  6
CONTINUOUS
 62
    7
 10
1564.0144903231176
 20
3169.4867883298239
 40
14.5
  0
ARC
  8
_0-0_
  6
CONTINUOUS
 62
    7
 10
1554.9519120207115
 20
3165.9867883298239
 40
1.8
 50
90
 51
270
  0
ARC
  8
_0-0_
  6
CONTINUOUS
 62
    7
 10
1573.0635993955098
 20
3165.9867883298239
 40
1.8
 50
270
 51
89.999999999999972
  0
LINE
  8
_0-0_
  6
CONTINUOUS
 62
    7
 10
1554.9519120207115
 20
3164.1867883298237
 11
1573.0635993955098
 21
3164.1867883298237
  0
LINE
  8
_0-0_
  6
CONTINUOUS
 62
    7
 10
1554.9519120207115
 20
3167.786788329824
 11
1573.0635993955098
 21
3167.786788329824
  0
ARC
  8
_0-0_
  6
CONTINUOUS
 62
    7
 10
1573.0015627020925
 20
3172.9867883298239
 40
1.8
 50
270
 51
89.999999999999972
  0
ARC
  8
_0-0_
  6
CONTINUOUS
 62
    7
 10
1554.9677076380074
 20
3172.9867883298239
 40
1.8
 50
90
 51
270
  0
LINE
  8
_0-0_
  6
CONTINUOUS
 62
    7
 10
1554.9677076380074
 20
3171.1867883298237
 11
1573.0015627020925
 21
3171.1867883298237
  0
LINE
  8
_0-0_
  6
CONTINUOUS
 62
    7
 10
1554.9677076380074
 20
3174.786788329824
 11
1573.0015627020925
 21
3174.786788329824
  0
LINE
  8
_0-0_
  6
CONTINUOUS
 62
    7
 10
1559.3930006598794
 20
3158.9854386912198
 11
1559.5942996588333
 21
3158.870201567056
  0
ARC
  8
_0-0_
  6
CONTINUOUS
 62
    7
 10
1560.0546784417384
 20
3159.9865293529456
 40
1.2
 50
94.828894877817106
 51
236.53701502361423
  0
LINE
  8
_0-0_
  6
CONTINUOUS
 62
    7
 10
1559.9536619920548
 20
3161.182269992421
 11
1560.0275841747903
 21
3161.1867883298237
  0
LINE
  8
_0-0_
  6
CONTINUOUS
 62
    7
 10
1560.0275841747903
 20
3161.1867883298237
 11
1567.9828894951834
 21
3161.1867883298237
  0
LINE
  8
_0-0_
  6
CONTINUOUS
 62
    7
 10
1568.1202166279129
 20
3161.1760084155158
 11
1567.9828894951834
 21
3161.1867883298237
  0
ARC
  8
_0-0_
  6
CONTINUOUS
 62
    7
 10
1567.9807630007408
 20
3159.9841390074557
 40
1.2
 50
303.85600939412763
 51
83.326500869141199
  0
LINE
  8
_0-0_
  6
CONTINUOUS
 62
    7
 10
1568.6492922132138
 20
3158.9876106877027
 11
1568.4644423490201
 21
3158.8826416424581
  0
LINE
  8
_0-0_
  6
CONTINUOUS
 62
    7
 10
1559.917316212686
 20
3177.7968508550762
 11
1560.0470371175479
 21
3177.786788329824
  0
ARC
  8
_0-0_
  6
CONTINUOUS
 62
    7
 10
1560.0397409242028
 20
3178.9905895995298
 40
1.2
 50
118.45376815304829
 51
264.14446288408544
  0
LINE
  8
_0-0_
  6
CONTINUOUS
 62
    7
 10
1559.5314582732849
 20
3180.0769924657307
 11
1559.4680015370718
 21
3180.0456318134738
  0
ARC
  8
_0-0_
  6
CONTINUOUS
 62
    7
 10
1564.0144903231176
 20
3169.4867883298239
 40
11.5
 50
67.095268571237838
 51
112.9438518564228
  0
LINE
  8
_0-0_
  6
CONTINUOUS
 62
    7
 10
1568.4902905461297
 20
3180.080050922797
 11
1568.5540055674596
 21
3180.0508074186419
  0
ARC
  8
_0-0_
  6
CONTINUOUS
 62
    7
 10
1568.0044774356197
 20
3178.984027763644
 40
1.2
 50
283.53111655417104
 51
62.745733768976102
  0
LINE
  8
_0-0_
  6
CONTINUOUS
 62
    7
 10
1568.2852455278685
 20
3177.8173361684167
 11
1568.0080267244243
 21
3177.786788329824
  0
LINE
  8
_0-0_
  6
CONTINUOUS
 62
    7
 10
1560.0470371175479
 20
3177.786788329824
 11
1568.0080267244243
 21
3177.786788329824
  0
ARC
  8
_0-0_
  6
CONTINUOUS
 62
    7
 10
1564.0144903231176
 20
3169.4867883298239
 40
11.5
 50
247.39571254530063
 51
292.7649981388339
  0
LINE
  8
_0-0_
  6
CONTINUOUS
 62
    7
 10
1573.176821571735
 20
3177.7461823690733
 11
1604.2305131786707
 21
3208.7998739760087
  0
LINE
  8
_0-0_
  6
CONTINUOUS
 62
    2
 10
1573.176821571735
 20
3177.7461823690733
 11
1577.176821571735
 21
3184.6743855993491
  0
LINE
  8
_0-0_
  6
CONTINUOUS
 62
    2
 10
1573.176821571735
 20
3177.7461823690733
 11
1580.1050248020106
 21
3181.7461823690733
  0
LINE
  8
_0-0_
  6
CONTINUOUS
 62
    2
 10
1543.5144903231176
 20
3215.3200207697942
 11
1551.2418969334299
 21
3217.390573130614
  0
LINE
  8
_0-0_
  6
CONTINUOUS
 62
    2
 10
1543.5144903231176
 20
3215.3200207697942
 11
1551.2418969334299
 21
3213.2494684089743
  0
LINE
  8
_0-0_
  6
CONTINUOUS
 62
    2
 10
1584.5144903231176
 20
3215.3200207697942
 11
1576.7870837128048
 21
3217.390573130614
  0
LINE
  8
_0-0_
  6
CONTINUOUS
 62
    2
 10
1584.5144903231176
 20
3215.3200207697942
 11
1576.7870837128048
 21
3213.2494684089743
  0
LINE
  8
_0-0_
  6
CONTINUOUS
 62
    2
 10
1543.5144903231176
 20
3223.3200207697942
 11
1543.5144903231176
 21
3198.7598254693885
  0
LINE
  8
_0-0_
  6
CONTINUOUS
 62
    2
 10
1584.5144903231176
 20
3223.3200207697942
 11
1584.5144903231176
 21
3198.7598254693885
  0
TEXT
  8
_0-0_
 62
    7
 10
1558.1332033821891
 20
3218.1606275185104
 40
4
 41
1
 50
0
  1
４１Φ
  0
LINE
  8
_0-0_
  6
CONTINUOUS
 62
    7
 10
1543.5144903231176
 20
3215.3200207697942
 11
1584.5144903231176
 21
3215.3200207697942
  0
LINE
  8
_0-0_
  6
DASHED2
 62
    7
 10
1550.3144903231173
 20
3131.8463174563226
 11
1550.3144903231173
 21
3119.6816785316523
  0
LINE
  8
_0-0_
  6
CONTINUOUS
 62
    7
 10
1579.7144903231174
 20
3131.8463174563226
 11
1579.3294903231176
 21
3120.8463174563226
  0
LINE
  8
_0-0_
  6
DASHED2
 62
    7
 10
1577.7144903231174
 20
3131.8463174563226
 11
1577.7144903231174
 21
3120.8463174563226
  0
LINE
  8
_0-0_
  6
CONTINUOUS
 62
    7
 10
1548.6994903231175
 20
3120.8463174563226
 11
1579.3294903231176
 21
3120.8463174563226
  0
LINE
  8
_0-0_
  6
CONTINUOUS
 62
    7
 10
1548.3144903231173
 20
3131.8463174563226
 11
1548.6994903231175
 21
3120.8463174563226
  0
LINE
  8
_0-0_
  6
CONTINUOUS
 62
    2
 10
1644.527665400838
 20
3134.8463174563226
 11
1642.4571130400179
 21
3142.5737240666349
  0
LINE
  8
_0-0_
  6
CONTINUOUS
 62
    2
 10
1644.527665400838
 20
3134.8463174563226
 11
1646.5982177616584
 21
3142.5737240666349
  0
LINE
  8
_0-0_
  6
CONTINUOUS
 62
    2
 10
1644.527665400838
 20
3120.8463174563226
 11
1642.4571130400179
 21
3113.1189108460103
  0
LINE
  8
_0-0_
  6
CONTINUOUS
 62
    2
 10
1644.527665400838
 20
3120.8463174563226
 11
1646.5982177616584
 21
3113.1189108460103
  0
LINE
  8
_0-0_
  6
CONTINUOUS
 62
    2
 10
1652.527665400838
 20
3134.8463174563226
 11
1588.5071996310321
 21
3134.8463174563226
  0
LINE
  8
_0-0_
  6
CONTINUOUS
 62
    7
 10
1644.527665400838
 20
3134.8463174563226
 11
1644.527665400838
 21
3120.8463174563226
  0
TEXT
  8
_0-0_
 62
    7
 10
1641.6359508062978
 20
3126.5933427091841
 40
4
 41
1
 50
90
  1
14
  0
LINE
  8
_0-0_
  6
CONTINUOUS
 62
    2
 10
1628.5904912523599
 20
3134.8463174563226
 11
1590.2346933053236
 21
3134.8463174563226
  0
LINE
  8
_0-0_
  6
CONTINUOUS
 62
    2
 10
1619.6545082563748
 20
3131.8463174563226
 11
1590.2346933053236
 21
3131.8463174563226
  0
LINE
  8
_0-0_
  6
CONTINUOUS
 62
    2
 10
1652.527665400838
 20
3120.8463174563226
 11
1590.2346933053236
 21
3120.8463174563226
  0
LINE
  8
_0-0_
  6
CONTINUOUS
 62
    2
 10
1654.2862144553824
 20
3134.8463174563226
 11
1590.2346933053236
 21
3134.8463174563226
  0
LINE
  8
_0-0_
  6
CONTINUOUS
 62
    2
 10
1548.3144903231173
 20
3101.8904710680617
 11
1556.0418969334301
 21
3103.9610234288821
  0
LINE
  8
_0-0_
  6
CONTINUOUS
 62
    2
 10
1548.3144903231173
 20
3101.8904710680617
 11
1556.0418969334301
 21
3099.8199187072419
  0
LINE
  8
_0-0_
  6
CONTINUOUS
 62
    2
 10
1579.7144903231174
 20
3101.8904710680617
 11
1571.9870837128051
 21
3103.9610234288821
  0
LINE
  8
_0-0_
  6
CONTINUOUS
 62
    2
 10
1579.7144903231174
 20
3101.8904710680617
 11
1571.9870837128051
 21
3099.8199187072419
  0
LINE
  8
_0-0_
  6
CONTINUOUS
 62
    2
 10
1548.3144903231173
 20
3093.8904710680617
 11
1548.3144903231173
 21
3117.5812613738663
  0
LINE
  8
_0-0_
  6
CONTINUOUS
 62
    2
 10
1579.7144903231174
 20
3093.8904710680617
 11
1579.7144903231174
 21
3117.5812613738663
  0
TEXT
  8
_0-0_
 62
    7
 10
1560.2876389794685
 20
3104.5056027856963
 40
4
 41
1
 50
0
  1
31.4
  0
LINE
  8
_0-0_
  6
CONTINUOUS
 62
    7
 10
1548.3144903231173
 20
3101.8904710680617
 11
1579.7144903231174
 21
3101.8904710680617
  0
LINE
  8
_0-0_
  6
CONTINUOUS
 62
    2
 10
1548.6994903231175
 20
3076.2621802352478
 11
1556.4268969334298
 21
3078.3327325960681
  0
LINE
  8
_0-0_
  6
CONTINUOUS
 62
    2
 10
1548.6994903231175
 20
3076.2621802352478
 11
1556.4268969334298
 21
3074.1916278744279
  0
LINE
  8
_0-0_
  6
CONTINUOUS
 62
    2
 10
1579.3294903231176
 20
3076.2621802352478
 11
1571.6020837128049
 21
3078.3327325960681
  0
LINE
  8
_0-0_
  6
CONTINUOUS
 62
    2
 10
1579.3294903231176
 20
3076.2621802352478
 11
1571.6020837128049
 21
3074.1916278744279
  0
LINE
  8
_0-0_
  6
CONTINUOUS
 62
    2
 10
1548.6994903231175
 20
3068.2621802352478
 11
1548.6994903231175
 21
3099.0661288130168
  0
LINE
  8
_0-0_
  6
CONTINUOUS
 62
    2
 10
1579.3294903231176
 20
3068.2621802352478
 11
1579.3294903231176
 21
3099.0661288130168
  0
TEXT
  8
_0-0_
 62
    7
 10
1559.9738231733522
 20
3078.668101415471
 40
4
 41
1
 50
0
  1
30.6
  0
LINE
  8
_0-0_
  6
CONTINUOUS
 62
    7
 10
1548.6994903231175
 20
3076.2621802352478
 11
1579.3294903231176
 21
3076.2621802352478
  0
TEXT
  8
_0-0_
 62
    7
 10
1586.3343508871039
 20
3098.6477077381955
 40
4
 41
1
 50
0
  1
差し口　根本側
  0
TEXT
  8
_0-0_
 62
    7
 10
1587.5896141115682
 20
3072.7056010992656
 40
4
 41
1
 50
0
  1
差し口先側
  0
TEXT
  8
_0-0_
 62
    7
 10
1674.6310290462525
 20
2981.1832661350927
 40
4
 41
1
 50
0
  1
01-5
  0
TEXT
  8
_0-0_
 62
    7
 10
1647.9163124339805
 20
3000.0434244947205
 40
4
 41
1.3999999999999999
 50
0
  1
製作者　伊東
  0
TEXT
  8
_0-0_
 62
    7
 10
1615.6877343082056
 20
2997.6763537849179
 40
4
 41
0.8
 50
0
  1
令和元年５月３１日
  0
TEXT
  8
_0-0_
 62
    7
 10
1605.85528674441
 20
3002.4104952045232
 40
4
 41
1
 50
0
  1
製作年月日
  0
TEXT
  8
_0-0_
 62
    7
 10
1613.5027459606954
 20
2988.7543180325847
 40
6.4000000000000004
 41
1.25
 50
0
  1
株式会社　アウス
  0
LINE
  8
_0-0_
  6
CONTINUOUS
 62
    7
 10
1645.1777550665001
 20
2996.8977518428319
 11
1645.1777550665001
 21
3036.8977518428319
  0
TEXT
  8
_0-0_
 62
    7
 10
1506.8929035106664
 20
3241.7360839663297
 40
8
 41
1
 50
0
  1
Ｄ－３Ｖ－ＶＰ　３０Ａ
  0
ENDSEC
  0
EOF
