  0
SECTION
  2
HEADER
  9
$ACADVER
  1
AC1009
  9
$INSBASE
 10
0
 20
0
 30
0
  9
$EXTMIN
 10
0
 20
0
  9
$EXTMAX
 10
4752
 20
3360
  9
$LIMMIN
 10
0
 20
0
  9
$LIMMAX
 10
4752
 20
3360
  9
$LTSCALE
 40
8
  0
ENDSEC
  0
SECTION
  2
TABLES
  0
TABLE
  2
LTYPE
 70
     9
  0
LTYPE
  2
CONTINUOUS
 70
    64
  3
実線
 72
    65
 73
     0
 40
0.0
  0
LTYPE
  2
DASHED1
 70
    64
  3
--  --  --  --  --  --  --  --  
 72
    65
 73
     2
 40
2.5
 49
1.25
 49
-1.25
  0
LTYPE
  2
DASHED2
 70
    64
  3
----    ----    ----    ----    
 72
    65
 73
     2
 40
5.0
 49
2.5
 49
-2.5
  0
LTYPE
  2
DASHED3
 70
    64
  3
------  ------  ------  ------  
 72
    65
 73
     2
 40
5.0
 49
3.75
 49
-1.25
  0
LTYPE
  2
CENTER1
 70
    64
  3
----- - ----- - ----- - ----- - 
 72
    65
 73
     4
 40
10.0
 49
6.25
 49
-1.25
 49
1.25
 49
-1.25
  0
LTYPE
  2
CENTER2
 70
    64
  3
----------  --  ----------  --  
 72
    65
 73
     4
 40
20.0
 49
12.5
 49
-2.5
 49
2.5
 49
-2.5
  0
LTYPE
  2
PHANTOM1
 70
    64
  3
--- - - --- - - --- - - --- - - 
 72
    65
 73
     6
 40
10.0
 49
3.25
 49
-1.25
 49
1.25
 49
-1.25
 49
1.25
 49
-1.25
  0
LTYPE
  2
PHANTOM2
 70
    64
  3
--------  -  -  --------  -  -  
 72
    65
 73
     6
 40
20.0
 49
10.0
 49
-2.5
 49
1.25
 49
-2.5
 49
1.25
 49
-2.5
  0
LTYPE
  2
DOT
 70
    64
  3
-   -   -   -   -   -   -   -   
 72
    65
 73
     2
 40
2.5
 49
0.625
 49
-1.875
  0
LTYPE
  2
DUMMY
 70
    64
  3
ダミー
 72
    65
 73
     0
 40
0.0
  0
LTYPE
  2
RAND1
 70
    64
  3
ランダム線1
 72
    65
 73
     4
 40
10.0
 49
1.0
 49
-2.0
 49
3.0
 49
-4.0
  0
LTYPE
  2
RAND2
 70
    64
  3
ランダム線2
 72
    65
 73
     4
 40
14.0
 49
2.0
 49
-3.0
 49
4.0
 49
-5.0
  0
LTYPE
  2
RAND3
 70
    64
  3
ランダム線3
 72
    65
 73
     4
 40
18.0
 49
3.0
 49
-4.0
 49
5.0
 49
-6.0
  0
LTYPE
  2
RAND4
 70
    64
  3
ランダム線4
 72
    65
 73
     4
 40
22.0
 49
4.0
 49
-5.0
 49
6.0
 49
-7.0
  0
LTYPE
  2
RAND5
 70
    64
  3
ランダム線5
 72
    65
 73
     4
 40
26.0
 49
5.0
 49
-6.0
 49
7.0
 49
-8.0
  0
LTYPE
  2
LONG1
 70
    64
  3
----------  --  ----------  --  
 72
    65
 73
     4
 40
40.0
 49
32.5
 49
-2.5
 49
2.5
 49
-2.5
  0
LTYPE
  2
LONG2
 70
    64
  3
--------  -  -  --------  -  -  
 72
    65
 73
     6
 40
40.0
 49
30.0
 49
-2.5
 49
1.25
 49
-2.5
 49
1.25
 49
-2.5
  0
LTYPE
  2
LONG3
 70
    64
  3
+++++++++++++++..+++++++++++++++
 72
    65
 73
     2
 40
40.0
 49
37.5
 49
-2.5
  0
LTYPE
  2
LONG4
 70
    64
  3
+++++++++++++++..+++++++++++++++
 72
    65
 73
     2
 40
80.0
 49
75.0
 49
-5.0
  0
LTYPE
  2
LONG5
 70
    64
  3
----------  --  ----------  --  
 72
    65
 73
     4
 40
60.0
 49
37.5
 49
-7.5
 49
7.5
 49
-7.5
  0
LTYPE
  2
dashed
 70
   64
  3
-------   -------------   ------
 72
   65
 73
    2
 40
7.5
 49
6
 49
-1.5
  0
LTYPE
  2
dashed_spaced
 70
   64
  3
----        --------        ----
 72
   65
 73
    2
 40
12
 49
6
 49
-6
  0
LTYPE
  2
long_dashed_dotted
 70
   64
  3
------------- --- --------------
 72
   65
 73
    4
 40
15.25
 49
12
 49
-1.5
 49
0.25
 49
-1.5
  0
LTYPE
  2
long_dashed_double-dotted
 70
   64
  3
----------- --- --- ------------
 72
   65
 73
    6
 40
17
 49
12
 49
-1.5
 49
0.25
 49
-1.5
 49
0.25
 49
-1.5
  0
LTYPE
  2
long_dashed_triplicate-dotted
 70
   64
  3
--------- --- --- --- ----------
 72
   65
 73
    8
 40
18.75
 49
12
 49
-1.5
 49
0.25
 49
-1.5
 49
0.25
 49
-1.5
 49
0.25
 49
-1.5
  0
LTYPE
  2
dotted
 70
   64
  3
   -       -       -       -    
 72
   65
 73
    2
 40
1.75
 49
0.25
 49
-1.5
  0
LTYPE
  2
chain
 70
   64
  3
-------------- -- --------------
 72
   65
 73
    4
 40
18.5
 49
12
 49
-1.5
 49
3.5
 49
-1.5
  0
LTYPE
  2
chain_double_dash
 70
   64
  3
------------ -- -- -------------
 72
   65
 73
    6
 40
23.5
 49
12
 49
-1.5
 49
3.5
 49
-1.5
 49
3.5
 49
-1.5
  0
LTYPE
  2
dashed_dotted
 70
   64
  3
-----------     -     ----------
 72
   65
 73
    4
 40
9.25
 49
6
 49
-1.5
 49
0.25
 49
-1.5
  0
LTYPE
  2
double-dashed_dotted
 70
   64
  3
------   -----------   -   -----
 72
   65
 73
    6
 40
16.75
 49
6
 49
-1.5
 49
6
 49
-1.5
 49
0.25
 49
-1.5
  0
LTYPE
  2
dashed_double-dotted
 70
   64
  3
---------    -    -    ---------
 72
   65
 73
    6
 40
11
 49
6
 49
-1.5
 49
0.25
 49
-1.5
 49
0.25
 49
-1.5
  0
LTYPE
  2
double-dashed_double-dotted
 70
   64
  3
-----   ---------   -   -   ----
 72
   65
 73
    8
 40
18.5
 49
6
 49
-1.5
 49
6
 49
-1.5
 49
0.25
 49
-1.5
 49
0.25
 49
-1.5
  0
LTYPE
  2
dashed_triplicate-dotted
 70
   64
  3
-------    -    -    -    ------
 72
   65
 73
    8
 40
12.75
 49
6
 49
-1.5
 49
0.25
 49
-1.5
 49
0.25
 49
-1.5
 49
0.25
 49
-1.5
  0
LTYPE
  2
double-dashed_triplicate-dotted
 70
   64
  3
-----  ---------  -  -  -  -----
 72
   65
 73
   10
 40
20.25
 49
6
 49
-1.5
 49
6
 49
-1.5
 49
0.25
 49
-1.5
 49
0.25
 49
-1.5
 49
0.25
 49
-1.5
  0
LTYPE
  2
undefined
 70
   64
  3
--------------------------------
 72
   65
 73
    0
 40
0
  0
LTYPE
  2
_
 70
   64
  3
                                
 72
   65
 73
    0
 40
0
  0
LTYPE
  2
__18
 70
   64
  3
                                
 72
   65
 73
    0
 40
0
  0
LTYPE
  2
__19
 70
   64
  3
                                
 72
   65
 73
    0
 40
0
  0
LTYPE
  2
__20
 70
   64
  3
                                
 72
   65
 73
    0
 40
0
  0
LTYPE
  2
__21
 70
   64
  3
                                
 72
   65
 73
    0
 40
0
  0
LTYPE
  2
__22
 70
   64
  3
                                
 72
   65
 73
    0
 40
0
  0
LTYPE
  2
__23
 70
   64
  3
                                
 72
   65
 73
    0
 40
0
  0
LTYPE
  2
__24
 70
   64
  3
                                
 72
   65
 73
    0
 40
0
  0
LTYPE
  2
__25
 70
   64
  3
                                
 72
   65
 73
    0
 40
0
  0
LTYPE
  2
__26
 70
   64
  3
                                
 72
   65
 73
    0
 40
0
  0
LTYPE
  2
__27
 70
   64
  3
                                
 72
   65
 73
    0
 40
0
  0
LTYPE
  2
__28
 70
   64
  3
                                
 72
   65
 73
    0
 40
0
  0
LTYPE
  2
__29
 70
   64
  3
                                
 72
   65
 73
    0
 40
0
  0
LTYPE
  2
__30
 70
   64
  3
                                
 72
   65
 73
    0
 40
0
  0
LTYPE
  2
__31
 70
   64
  3
                                
 72
   65
 73
    0
 40
0
  0
LTYPE
  2
__32
 70
   64
  3
                                
 72
   65
 73
    0
 40
0
  0
ENDTAB
  0
TABLE
  2
STYLE
  5
3
100
AcDbSymbolTable
 70
     1
  0
STYLE
  5
10
100
AcDbSymbolTableRecord
100
AcDbTextStyleTableRecord
  2
STANDARD
 70
     0
 40
0.0
 41
1.0
 50
0.0
 71
     0
 42
0.2
  3
txt
  4
bigfont.shx
  0
STYLE
  5
26
100
AcDbSymbolTableRecord
100
AcDbTextStyleTableRecord
  2
TATEGAKI
 70
    68
 40
0.0
 41
1.0
 50
0.0
 71
     0
 42
1.0
  3
txt
  4
bigfont.shx
  0
ENDTAB
  0
TABLE
  2
LAYER
 70
    2
  0
LAYER
  2
_0-0_
 70
   64
 62
    7
  6
CONTINUOUS
  0
LAYER
  2
ADD_LINE
 70
   64
 62
    7
  6
CONTINUOUS
  0
ENDTAB
  0
ENDSEC
  0
SECTION
  2
BLOCKS
  0
ENDSEC
  0
SECTION
  2
ENTITIES
  0
LINE
  8
_0-0_
  6
CONTINUOUS
 62
    2
 10
1554.0644903231173
 20
3091.2782235319801
 11
1554.0644903231173
 21
3114.7428780334103
  0
CIRCLE
  8
_0-0_
  6
CONTINUOUS
 62
    7
 10
1564.0144903231176
 20
3169.4867883298239
 40
6
  0
LINE
  8
_0-0_
  6
CONTINUOUS
 62
    7
 10
1553.9144903231174
 20
3132.8463174563226
 11
1554.0644903231173
 21
3120.8463174563226
  0
LINE
  8
_0-0_
  6
CONTINUOUS
 62
    7
 10
1574.1144903231175
 20
3132.8463174563226
 11
1573.9644903231174
 21
3120.8463174563226
  0
LINE
  8
_0-0_
  6
CONTINUOUS
 62
    7
 10
1549.0144903231176
 20
3134.8463174563226
 11
1579.0144903231176
 21
3134.8463174563226
  0
LINE
  8
_0-0_
  6
CONTINUOUS
 62
    7
 10
1549.0144903231176
 20
3132.8463174563226
 11
1579.0144903231176
 21
3132.8463174563226
  0
LINE
  8
_0-0_
  6
CONTINUOUS
 62
    7
 10
1554.0644903231173
 20
3120.8463174563226
 11
1573.9644903231174
 21
3120.8463174563226
  0
LINE
  8
_0-0_
  6
DASHED1
 62
    7
 10
1572.0144903231176
 20
3132.8463174563226
 11
1572.0144903231176
 21
3120.8463174563226
  0
LINE
  8
_0-0_
  6
DASHED1
 62
    7
 10
1556.0144903231176
 20
3132.8463174563226
 11
1556.0144903231176
 21
3120.8463174563226
  0
CIRCLE
  8
_0-0_
  6
CONTINUOUS
 62
    7
 10
1564.0144903231176
 20
3169.4867883298239
 40
15
  0
LINE
  8
_0-0_
  6
CENTER1
 62
    7
 10
1547.2397702917588
 20
3169.4867883298239
 11
1580.8287349937232
 21
3169.4867883298239
  0
LINE
  8
_0-0_
  6
CONTINUOUS
 62
    7
 10
1549.0144903231176
 20
3134.8463174563226
 11
1549.0144903231176
 21
3132.8463174563226
  0
LINE
  8
_0-0_
  6
CONTINUOUS
 62
    7
 10
1579.0144903231176
 20
3134.8463174563226
 11
1579.0144903231176
 21
3132.8463174563226
  0
LINE
  8
_0-0_
  6
CENTER1
 62
    7
 10
1564.0144903231176
 20
3187.4009028375376
 11
1564.0144903231176
 21
3152.6923059788414
  0
LINE
  8
_0-0_
  6
CENTER1
 62
    7
 10
1564.0144903231176
 20
3137.1191910680263
 11
1564.0144903231176
 21
3119.4281325293405
  0
LINE
  8
_0-0_
  6
CONTINUOUS
 62
    7
 10
1569.5144903231176
 20
3171.9867883298239
 11
1569.5144903231176
 21
3166.9867883298239
  0
LINE
  8
_0-0_
  6
CONTINUOUS
 62
    7
 10
1561.6165745614612
 20
3174.9867883298239
 11
1566.4124060847739
 21
3174.9867883298239
  0
LINE
  8
_0-0_
  6
CONTINUOUS
 62
    7
 10
1560.0458633565206
 20
3173.9867883298239
 11
1567.9831172897143
 21
3173.9867883298239
  0
LINE
  8
_0-0_
  6
CONTINUOUS
 62
    7
 10
1559.141093150713
 20
3172.9867883298239
 11
1568.8878874955219
 21
3172.9867883298239
  0
LINE
  8
_0-0_
  6
CONTINUOUS
 62
    7
 10
1558.5601342657997
 20
3171.9867883298239
 11
1569.5144903231176
 21
3171.9867883298239
  0
LINE
  8
_0-0_
  6
CONTINUOUS
 62
    7
 10
1558.2050153038062
 20
3170.9867883298239
 11
1569.8239653424284
 21
3170.9867883298239
  0
LINE
  8
_0-0_
  6
CONTINUOUS
 62
    7
 10
1558.0353599515668
 20
3169.9867883298239
 11
1569.9936206946682
 21
3169.9867883298239
  0
LINE
  8
_0-0_
  6
CONTINUOUS
 62
    7
 10
1558.0353599515668
 20
3168.9867883298239
 11
1569.9936206946682
 21
3168.9867883298239
  0
LINE
  8
_0-0_
  6
CONTINUOUS
 62
    7
 10
1558.2050153038062
 20
3167.9867883298239
 11
1569.8239653424284
 21
3167.9867883298239
  0
LINE
  8
_0-0_
  6
CONTINUOUS
 62
    7
 10
1558.5601342657997
 20
3166.9867883298239
 11
1569.4688463804355
 21
3166.9867883298239
  0
LINE
  8
_0-0_
  6
CONTINUOUS
 62
    7
 10
1558.5144903231176
 20
3171.9867883298239
 11
1558.5144903231176
 21
3167.0888725681675
  0
LINE
  8
_0-0_
  6
CONTINUOUS
 62
    7
 10
1559.5144903231176
 20
3173.4554152964211
 11
1559.5144903231176
 21
3165.5181613632267
  0
LINE
  8
_0-0_
  6
CONTINUOUS
 62
    7
 10
1560.5144903231176
 20
3174.3601855022284
 11
1560.5144903231176
 21
3164.6133911574193
  0
LINE
  8
_0-0_
  6
CONTINUOUS
 62
    7
 10
1561.5144903231176
 20
3174.9867883298239
 11
1561.5144903231176
 21
3164.032432272506
  0
LINE
  8
_0-0_
  6
CONTINUOUS
 62
    7
 10
1562.5144903231176
 20
3175.3343015147557
 11
1562.5144903231176
 21
3163.6773133105125
  0
LINE
  8
_0-0_
  6
CONTINUOUS
 62
    7
 10
1563.5144903231176
 20
3175.4659187013749
 11
1563.5144903231176
 21
3163.5076579582728
  0
LINE
  8
_0-0_
  6
CONTINUOUS
 62
    7
 10
1564.5144903231176
 20
3175.4659187013749
 11
1564.5144903231176
 21
3163.5076579582728
  0
LINE
  8
_0-0_
  6
CONTINUOUS
 62
    7
 10
1565.5144903231176
 20
3175.2962633491352
 11
1565.5144903231176
 21
3163.6773133105125
  0
LINE
  8
_0-0_
  6
CONTINUOUS
 62
    7
 10
1566.5144903231176
 20
3174.9411443871418
 11
1566.5144903231176
 21
3164.032432272506
  0
LINE
  8
_0-0_
  6
CONTINUOUS
 62
    7
 10
1567.5144903231176
 20
3174.3601855022284
 11
1567.5144903231176
 21
3164.6133911574193
  0
LINE
  8
_0-0_
  6
CONTINUOUS
 62
    7
 10
1560.0458633565206
 20
3164.9867883298239
 11
1567.9831172897143
 21
3164.9867883298239
  0
LINE
  8
_0-0_
  6
CONTINUOUS
 62
    7
 10
1568.5144903231176
 20
3173.4554152964211
 11
1568.5144903231176
 21
3165.5181613632267
  0
LINE
  8
_0-0_
  6
CONTINUOUS
 62
    7
 10
1559.141093150713
 20
3165.9867883298239
 11
1568.8878874955219
 21
3165.9867883298239
  0
LINE
  8
_0-0_
  6
CONTINUOUS
 62
    7
 10
1561.6165745614612
 20
3163.9867883298239
 11
1566.5144903231176
 21
3163.9867883298239
  0
LINE
  8
_0-0_
  6
CONTINUOUS
 62
    2
 10
1573.9644903231174
 20
3091.2782235319801
 11
1573.9644903231174
 21
3114.7428780334103
  0
LINE
  8
_0-0_
  6
CONTINUOUS
 62
    2
 10
1553.9144903231174
 20
3057.351888462953
 11
1553.9144903231174
 21
3114.862759076057
  0
LINE
  8
_0-0_
  6
CONTINUOUS
 62
    2
 10
1574.1144903231175
 20
3057.351888462953
 11
1574.1144903231175
 21
3114.862759076057
  0
LINE
  8
_0-0_
  6
CONTINUOUS
 62
    2
 10
1549.0144903231176
 20
3214.6257365103756
 11
1541.2870837128048
 21
3212.5551841495553
  0
LINE
  8
_0-0_
  6
CONTINUOUS
 62
    2
 10
1549.0144903231176
 20
3214.6257365103756
 11
1541.2870837128048
 21
3216.696288871196
  0
LINE
  8
_0-0_
  6
CONTINUOUS
 62
    2
 10
1579.0144903231176
 20
3214.6257365103756
 11
1586.7418969334299
 21
3212.5551841495553
  0
LINE
  8
_0-0_
  6
CONTINUOUS
 62
    2
 10
1579.0144903231176
 20
3214.6257365103756
 11
1586.7418969334299
 21
3216.696288871196
  0
LINE
  8
_0-0_
  6
CONTINUOUS
 62
    2
 10
1625.3885437282722
 20
3134.8463174563226
 11
1588.9936342094466
 21
3134.8463174563226
  0
LINE
  8
_0-0_
  6
CONTINUOUS
 62
    2
 10
1625.3885437282722
 20
3120.8463174563226
 11
1588.9936342094466
 21
3120.8463174563226
  0
LINE
  8
_0-0_
  6
CONTINUOUS
 62
    7
 10
1605.1777550665001
 20
3006.8977518428319
 11
1685.1777550665001
 21
3006.8977518428319
  0
LINE
  8
_0-0_
  6
CONTINUOUS
 62
    7
 10
1605.1777550665001
 20
3016.8977518428319
 11
1685.1777550665001
 21
3016.8977518428319
  0
LINE
  8
_0-0_
  6
CONTINUOUS
 62
    7
 10
1605.1777550665001
 20
3026.8977518428319
 11
1685.1777550665001
 21
3026.8977518428319
  0
LINE
  8
_0-0_
  6
CONTINUOUS
 62
    2
 10
1665.0519154501719
 20
3134.8463174563226
 11
1589.341871583777
 21
3134.8463174563226
  0
LINE
  8
_0-0_
  6
CONTINUOUS
 62
    2
 10
1658.5356016703518
 20
3134.8463174563226
 11
1656.4650493095317
 21
3142.5737240666349
  0
LINE
  8
_0-0_
  6
CONTINUOUS
 62
    2
 10
1658.5356016703518
 20
3134.8463174563226
 11
1660.6061540311721
 21
3142.5737240666349
  0
LINE
  8
_0-0_
  6
CONTINUOUS
 62
    2
 10
1658.5356016703518
 20
3120.8463174563226
 11
1656.4650493095317
 21
3113.1189108460103
  0
LINE
  8
_0-0_
  6
CONTINUOUS
 62
    2
 10
1658.5356016703518
 20
3120.8463174563226
 11
1660.6061540311721
 21
3113.1189108460103
  0
LINE
  8
_0-0_
  6
CONTINUOUS
 62
    2
 10
1666.5356016703518
 20
3134.8463174563226
 11
1589.2069910183063
 21
3134.8463174563226
  0
LINE
  8
_0-0_
  6
CONTINUOUS
 62
    2
 10
1666.5356016703518
 20
3120.8463174563226
 11
1589.2069910183063
 21
3120.8463174563226
  0
LINE
  8
_0-0_
  6
CONTINUOUS
 62
    2
 10
1620.5904912523599
 20
3134.8463174563226
 11
1618.5199388915398
 21
3142.5737240666349
  0
LINE
  8
_0-0_
  6
CONTINUOUS
 62
    2
 10
1620.5904912523599
 20
3134.8463174563226
 11
1622.66104361318
 21
3142.5737240666349
  0
LINE
  8
_0-0_
  6
CONTINUOUS
 62
    2
 10
1620.5904912523599
 20
3132.8463174563226
 11
1618.5199388915398
 21
3125.1189108460103
  0
LINE
  8
_0-0_
  6
CONTINUOUS
 62
    2
 10
1620.5904912523599
 20
3132.8463174563226
 11
1622.66104361318
 21
3125.1189108460103
  0
LINE
  8
_0-0_
  6
CONTINUOUS
 62
    2
 10
1628.5904912523599
 20
3134.8463174563226
 11
1589.3480285522646
 21
3134.8463174563226
  0
LINE
  8
_0-0_
  6
CONTINUOUS
 62
    2
 10
1628.5904912523599
 20
3132.8463174563226
 11
1589.3480285522646
 21
3132.8463174563226
  0
LINE
  8
_0-0_
  6
CONTINUOUS
 62
    2
 10
1585.0526094055276
 20
3214.6257365103756
 11
1538.3399261847621
 21
3214.6257365103756
  0
LINE
  8
_0-0_
  6
CONTINUOUS
 62
    2
 10
1579.0144903231176
 20
3214.6257365103756
 11
1588.0802833179846
 21
3214.6257365103756
  0
LINE
  8
_0-0_
  6
CONTINUOUS
 62
    2
 10
1549.0144903231176
 20
3222.6257365103756
 11
1549.0144903231176
 21
3191.1800788632063
  0
LINE
  8
_0-0_
  6
CONTINUOUS
 62
    2
 10
1579.0144903231176
 20
3222.6257365103756
 11
1579.0144903231176
 21
3191.1800788632063
  0
LINE
  8
_0-0_
  6
CONTINUOUS
 62
    7
 10
1620.5904912523599
 20
3145.6262175724241
 11
1620.5904912523599
 21
3122.7160854318195
  0
LINE
  8
_0-0_
  6
CONTINUOUS
 62
    7
 10
1658.5356016703518
 20
3150.6698660660645
 11
1658.5356016703518
 21
3107.5851399508979
  0
TEXT
  8
_0-0_
 62
    7
 10
1654.6211315575565
 20
3126.4774504101279
 40
4
 41
1
 50
90
  1
14
  0
TEXT
  8
_0-0_
 62
    7
 10
1618.6317075605623
 20
3132.9743535544785
 40
4
 41
1
 50
90
  1
2
  0
TEXT
  8
_0-0_
 62
    7
 10
1560.4855412208744
 20
3218.4587288723196
 40
4
 41
1
 50
0
  1
30Φ
  0
LINE
  8
_0-0_
  6
CONTINUOUS
 62
    2
 10
1554.0644903231173
 20
3099.2782235319801
 11
1539.8267942724901
 21
3095.4632443731352
  0
LINE
  8
_0-0_
  6
CONTINUOUS
 62
    2
 10
1554.0644903231173
 20
3099.2782235319801
 11
1539.8267942724901
 21
3103.0932026908258
  0
LINE
  8
_0-0_
  6
CONTINUOUS
 62
    2
 10
1573.9644903231174
 20
3099.2782235319801
 11
1588.4218012988031
 21
3103.1520483326408
  0
LINE
  8
_0-0_
  6
CONTINUOUS
 62
    2
 10
1573.9644903231174
 20
3099.2782235319801
 11
1588.4218012988031
 21
3095.4043987313198
  0
LINE
  8
_0-0_
  6
CONTINUOUS
 62
    2
 10
1574.1144903231175
 20
3065.351888462953
 11
1588.4218012988031
 21
3069.1855208847487
  0
LINE
  8
_0-0_
  6
CONTINUOUS
 62
    2
 10
1574.1144903231175
 20
3065.351888462953
 11
1588.4218012988031
 21
3061.5182560411567
  0
LINE
  8
_0-0_
  6
CONTINUOUS
 62
    2
 10
1553.9144903231174
 20
3065.351888462953
 11
1539.8267942724901
 21
3061.5771016829722
  0
LINE
  8
_0-0_
  6
CONTINUOUS
 62
    2
 10
1553.9144903231174
 20
3065.351888462953
 11
1539.8267942724901
 21
3069.1266752429337
  0
LINE
  8
_0-0_
  6
CONTINUOUS
 62
    2
 10
1578.5701864113967
 20
3099.2782235319801
 11
1527.1498359177999
 21
3099.2782235319801
  0
LINE
  8
_0-0_
  6
CONTINUOUS
 62
    2
 10
1589.7124926782776
 20
3065.351888462953
 11
1527.1498359177999
 21
3065.351888462953
  0
LINE
  8
_0-0_
  6
CONTINUOUS
 62
    2
 10
1574.1144903231175
 20
3065.351888462953
 11
1599.4554502371445
 21
3065.351888462953
  0
LINE
  8
_0-0_
  6
CONTINUOUS
 62
    2
 10
1573.9644903231174
 20
3099.2782235319801
 11
1599.4554502371445
 21
3099.2782235319801
  0
LINE
  8
_0-0_
  6
CONTINUOUS
 62
    7
 10
1495.1777550665001
 20
2986.8977518428319
 11
1685.1777550665001
 21
2986.8977518428319
  0
LINE
  8
_0-0_
  6
CONTINUOUS
 62
    7
 10
1605.1777550665001
 20
2996.8977518428319
 11
1685.1777550665001
 21
2996.8977518428319
  0
TEXT
  8
_0-0_
 62
    7
 10
1649.2236293968908
 20
2987.7753931011212
 40
8
 41
0.5
 50
0
  1
株式会社　アウス
  0
TEXT
  8
_0-0_
 62
    7
 10
1607.722378104414
 20
2999.8139240103892
 40
4
 41
1.3999999999999999
 50
0
  1
製作者　伊東
  0
TEXT
  8
_0-0_
 62
    7
 10
1612.7912332241058
 20
3009.9516342497732
 40
4
 41
2
 50
0
  1
サイズ
  0
TEXT
  8
_0-0_
 62
    7
 10
1654.2924845165826
 20
3009.9516342497732
 40
4
 41
1.3999999999999999
 50
0
  1
２０Ａ
  0
TEXT
  8
_0-0_
 62
    7
 10
1647.6396121719872
 20
3020.0893444891567
 40
4
 41
1
 50
0
  1
防虫目皿（ＶＰ用）
  0
TEXT
  8
_0-0_
 62
    7
 10
1648.9068259519099
 20
3030.2270547285402
 40
4
 41
1
 50
0
  1
Ｄ－３ＢＶ－ＶＰ
  0
TEXT
  8
_0-0_
 62
    7
 10
1613.1080366690867
 20
3020.4061479341372
 40
4
 41
2
 50
0
  1
製品名
  0
TEXT
  8
_0-0_
 62
    7
 10
1608.3559849943754
 20
3029.5934478385789
 40
4
 41
2
 50
0
  1
製品番号
  0
LINE
  8
_0-0_
  6
CONTINUOUS
 62
    7
 10
1685.1777550665001
 20
3266.8977518428319
 11
1495.1777550665001
 21
3266.8977518428319
  0
LINE
  8
_0-0_
  6
CONTINUOUS
 62
    7
 10
1495.1777550665001
 20
3266.8977518428319
 11
1495.1777550665001
 21
2986.8977518428319
  0
LINE
  8
_0-0_
  6
CONTINUOUS
 62
    7
 10
1685.1777550665001
 20
2986.8977518428319
 11
1685.1777550665001
 21
3266.8977518428319
  0
TEXT
  8
_0-0_
 62
    7
 10
1505.0780619306547
 20
3253.25667999498
 40
8
 41
1
 50
0
  1
防虫目皿（ＶＰ専用）
  0
LINE
  8
_0-0_
  6
CONTINUOUS
 62
    7
 10
1605.1777550665001
 20
2986.8977518428319
 11
1605.1777550665001
 21
3036.8977518428319
  0
LINE
  8
_0-0_
  6
CONTINUOUS
 62
    7
 10
1645.1777550665001
 20
2986.8977518428319
 11
1645.1777550665001
 21
3036.8977518428319
  0
LINE
  8
_0-0_
  6
CONTINUOUS
 62
    7
 10
1503.9081846891968
 20
3036.8977518428319
 11
1503.9081846891968
 21
3015.8977518428319
  0
LINE
  8
_0-0_
  6
CONTINUOUS
 62
    7
 10
1503.9081846891968
 20
3029.8977518428319
 11
1578.9081846891968
 21
3029.8977518428319
  0
LINE
  8
_0-0_
  6
CONTINUOUS
 62
    7
 10
1503.9081846891968
 20
3022.8977518428319
 11
1578.9081846891968
 21
3022.8977518428319
  0
LINE
  8
_0-0_
  6
CONTINUOUS
 62
    7
 10
1503.9081846891968
 20
3015.8977518428319
 11
1578.9081846891968
 21
3015.8977518428319
  0
LINE
  8
_0-0_
  6
CONTINUOUS
 62
    7
 10
1513.9081846891968
 20
3036.8977518428319
 11
1513.9081846891968
 21
3015.8977518428319
  0
LINE
  8
_0-0_
  6
CONTINUOUS
 62
    7
 10
1528.9081846891968
 20
3036.8977518428319
 11
1528.9081846891968
 21
3015.8977518428319
  0
LINE
  8
_0-0_
  6
CONTINUOUS
 62
    7
 10
1548.9081846891968
 20
3036.8977518428319
 11
1548.9081846891968
 21
3015.8977518428319
  0
LINE
  8
_0-0_
  6
CONTINUOUS
 62
    7
 10
1578.9081846891968
 20
3036.8977518428319
 11
1578.9081846891968
 21
3015.8977518428319
  0
TEXT
  8
_0-0_
 62
    7
 10
1506.7514093353229
 20
3017.1010639763499
 40
4
 41
1
 50
0
  1
２
  0
TEXT
  8
_0-0_
 62
    7
 10
1516.6152950970222
 20
3017.2741146037479
 40
4
 41
1
 50
0
  1
アミ
  0
TEXT
  8
_0-0_
 62
    7
 10
1530.2862946614828
 20
3017.0145386626505
 40
4
 41
1
 50
0
  1
ＳＵＳ304
  0
TEXT
  8
_0-0_
 62
    7
 10
1549.9275408711824
 20
3024.2826650133766
 40
4
 41
1
 50
0
  1
クロームメッキ
  0
TEXT
  8
_0-0_
 62
    7
 10
1553.6481293602444
 20
3031.0316394819074
 40
4
 41
1
 50
0
  1
備　　　考
  0
TEXT
  8
_0-0_
 62
    7
 10
1533.1416300135536
 20
3031.2912154230048
 40
4
 41
1
 50
0
  1
材　質
  0
TEXT
  8
_0-0_
 62
    7
 10
1529.8536680929872
 20
3024.1096143859781
 40
4
 41
1
 50
0
  1
ＣＡＣ203
  0
TEXT
  8
_0-0_
 62
    7
 10
1518.691902625801
 20
3024.3691903270756
 40
4
 41
1
 50
0
  1
枠
  0
TEXT
  8
_0-0_
 62
    7
 10
1506.7514093353229
 20
3024.5422409544735
 40
4
 41
1
 50
0
  1
１
  0
TEXT
  8
_0-0_
 62
    7
 10
1504.6748018065441
 20
3031.1181647956064
 40
4
 41
1
 50
0
  1
Ｎｏ
  0
TEXT
  8
_0-0_
 62
    7
 10
1515.3174153915356
 20
3031.3777407367043
 40
4
 41
1
 50
0
  1
部品名
  0
TEXT
  8
_0-0_
 62
    7
 10
1505.1074283750397
 20
3038.2132405189341
 40
4
 41
1
 50
0
  1
■部品構成
  0
LINE
  8
_0-0_
  6
CONTINUOUS
 62
    7
 10
1503.9081846891968
 20
3036.8977518428319
 11
1578.9081846891968
 21
3036.8977518428319
  0
LINE
  8
_0-0_
  6
CONTINUOUS
 62
    7
 10
1605.1777550665001
 20
3036.8977518428319
 11
1685.1777550665001
 21
3036.8977518428319
  0
TEXT
  8
_0-0_
 62
    7
 10
1504.2421752380487
 20
3007.756330096845
 40
4
 41
1
 50
0
  1
※20Ａ・25Ａ・30Ａはテーパー加工しています
  0
TEXT
  8
_0-0_
 62
    7
 10
1606.5331466627413
 20
2992.3638495745704
 40
4
 41
1
 50
0
  1
製作年月日
  0
TEXT
  8
_0-0_
 62
    7
 10
1615.8472729482842
 20
2987.4368117568556
 40
4
 41
0.8
 50
0
  1
令和元年５月２７日
  0
TEXT
  8
_0-0_
 62
    7
 10
1504.9167529954962
 20
3241.7596042061114
 40
8
 41
1
 50
0
  1
Ｄ－３ＢＶ－ＶＰ　20Ａ
  0
TEXT
  8
_0-0_
 62
    7
 10
1592.8143659710829
 20
3068.2196837418724
 40
4
 41
1
 50
0
  1
差し口先側
  0
TEXT
  8
_0-0_
 62
    7
 10
1590.5372312803793
 20
3101.9339279125679
 40
4
 41
1
 50
0
  1
差し口　根本側
  0
TEXT
  8
_0-0_
 62
    7
 10
1559.9224204386965
 20
3101.9339279125679
 40
4
 41
1
 50
0
  1
20.2
  0
TEXT
  8
_0-0_
 62
    7
 10
1559.8591666972882
 20
3067.9666687762383
 40
4
 41
1
 50
0
  1
19.9
  0
TEXT
  8
_0-0_
 62
    7
 10
1552.9058189661032
 20
3017.272370259825
 40
4
 41
1
 50
0
  1
30メッシュ
  0
TEXT
  8
_0-0_
 62
    7
 10
1631.8354721442033
 20
3158.9772325063432
 40
4
 41
1
 50
0
  1
①
  0
TEXT
  8
_0-0_
 62
    7
 10
1633.9019106081125
 20
3206.8889186920323
 40
4
 41
1
 50
0
  1
②
  0
LINE
  8
_0-0_
  6
CONTINUOUS
 62
    7
 10
1631.003697867181
 20
3208.7998739760087
 11
1604.2305131786707
 21
3208.7998739760087
  0
LINE
  8
_0-0_
  6
CONTINUOUS
 62
    7
 10
1601.2678370246108
 20
3160.9627914776975
 11
1629.502326808519
 21
3160.9627914776975
  0
LINE
  8
_0-0_
  6
CONTINUOUS
 62
    7
 10
1577.2445910550766
 20
3136.9395455081631
 11
1601.2678370246108
 21
3160.9627914776975
  0
LINE
  8
_0-0_
  6
CONTINUOUS
 62
    2
 10
1577.2445910550766
 20
3136.9395455081631
 11
1581.2445910550766
 21
3143.8677487384389
  0
LINE
  8
_0-0_
  6
CONTINUOUS
 62
    2
 10
1577.2445910550766
 20
3136.9395455081631
 11
1584.1727942853522
 21
3140.9395455081631
  0
LINE
  8
_0-0_
  6
CONTINUOUS
 62
    7
 10
1569.8795561757729
 20
3174.448916973111
 11
1604.2305131786707
 21
3208.7998739760087
  0
LINE
  8
_0-0_
  6
CONTINUOUS
 62
    2
 10
1569.8795561757729
 20
3174.448916973111
 11
1573.8795561757729
 21
3181.3771202033868
  0
LINE
  8
_0-0_
  6
CONTINUOUS
 62
    2
 10
1569.8795561757729
 20
3174.448916973111
 11
1576.8077594060483
 21
3178.448916973111
  0
LINE
  8
_0-0_
  6
DASHED2
 62
    7
 10
1549.0144903231176
 20
3133.8463174563226
 11
1579.0144903231176
 21
3133.8463174563226
  0
ENDSEC
  0
EOF
