  0
SECTION
  2
HEADER
  9
$ACADVER
  1
AC1009
  9
$INSBASE
 10
0
 20
0
 30
0
  9
$EXTMIN
 10
0
 20
0
  9
$EXTMAX
 10
1782
 20
1260
  9
$LIMMIN
 10
0
 20
0
  9
$LIMMAX
 10
1782
 20
1260
  9
$LTSCALE
 40
6
  0
ENDSEC
  0
SECTION
  2
TABLES
  0
TABLE
  2
LTYPE
 70
     9
  0
LTYPE
  2
CONTINUOUS
 70
    64
  3
実線
 72
    65
 73
     0
 40
0.0
  0
LTYPE
  2
DASHED1
 70
    64
  3
--  --  --  --  --  --  --  --  
 72
    65
 73
     2
 40
2.5
 49
1.25
 49
-1.25
  0
LTYPE
  2
DASHED2
 70
    64
  3
----    ----    ----    ----    
 72
    65
 73
     2
 40
5.0
 49
2.5
 49
-2.5
  0
LTYPE
  2
DASHED3
 70
    64
  3
------  ------  ------  ------  
 72
    65
 73
     2
 40
5.0
 49
3.75
 49
-1.25
  0
LTYPE
  2
CENTER1
 70
    64
  3
----- - ----- - ----- - ----- - 
 72
    65
 73
     4
 40
10.0
 49
6.25
 49
-1.25
 49
1.25
 49
-1.25
  0
LTYPE
  2
CENTER2
 70
    64
  3
----------  --  ----------  --  
 72
    65
 73
     4
 40
20.0
 49
12.5
 49
-2.5
 49
2.5
 49
-2.5
  0
LTYPE
  2
PHANTOM1
 70
    64
  3
--- - - --- - - --- - - --- - - 
 72
    65
 73
     6
 40
10.0
 49
3.25
 49
-1.25
 49
1.25
 49
-1.25
 49
1.25
 49
-1.25
  0
LTYPE
  2
PHANTOM2
 70
    64
  3
--------  -  -  --------  -  -  
 72
    65
 73
     6
 40
20.0
 49
10.0
 49
-2.5
 49
1.25
 49
-2.5
 49
1.25
 49
-2.5
  0
LTYPE
  2
DOT
 70
    64
  3
-   -   -   -   -   -   -   -   
 72
    65
 73
     2
 40
2.5
 49
0.625
 49
-1.875
  0
LTYPE
  2
DUMMY
 70
    64
  3
ダミー
 72
    65
 73
     0
 40
0.0
  0
LTYPE
  2
RAND1
 70
    64
  3
ランダム線1
 72
    65
 73
     4
 40
10.0
 49
1.0
 49
-2.0
 49
3.0
 49
-4.0
  0
LTYPE
  2
RAND2
 70
    64
  3
ランダム線2
 72
    65
 73
     4
 40
14.0
 49
2.0
 49
-3.0
 49
4.0
 49
-5.0
  0
LTYPE
  2
RAND3
 70
    64
  3
ランダム線3
 72
    65
 73
     4
 40
18.0
 49
3.0
 49
-4.0
 49
5.0
 49
-6.0
  0
LTYPE
  2
RAND4
 70
    64
  3
ランダム線4
 72
    65
 73
     4
 40
22.0
 49
4.0
 49
-5.0
 49
6.0
 49
-7.0
  0
LTYPE
  2
RAND5
 70
    64
  3
ランダム線5
 72
    65
 73
     4
 40
26.0
 49
5.0
 49
-6.0
 49
7.0
 49
-8.0
  0
LTYPE
  2
LONG1
 70
    64
  3
----------  --  ----------  --  
 72
    65
 73
     4
 40
40.0
 49
32.5
 49
-2.5
 49
2.5
 49
-2.5
  0
LTYPE
  2
LONG2
 70
    64
  3
--------  -  -  --------  -  -  
 72
    65
 73
     6
 40
40.0
 49
30.0
 49
-2.5
 49
1.25
 49
-2.5
 49
1.25
 49
-2.5
  0
LTYPE
  2
LONG3
 70
    64
  3
+++++++++++++++..+++++++++++++++
 72
    65
 73
     2
 40
40.0
 49
37.5
 49
-2.5
  0
LTYPE
  2
LONG4
 70
    64
  3
+++++++++++++++..+++++++++++++++
 72
    65
 73
     2
 40
80.0
 49
75.0
 49
-5.0
  0
LTYPE
  2
LONG5
 70
    64
  3
----------  --  ----------  --  
 72
    65
 73
     4
 40
60.0
 49
37.5
 49
-7.5
 49
7.5
 49
-7.5
  0
LTYPE
  2
dashed
 70
   64
  3
-------   -------------   ------
 72
   65
 73
    2
 40
7.5
 49
6
 49
-1.5
  0
LTYPE
  2
dashed_spaced
 70
   64
  3
----        --------        ----
 72
   65
 73
    2
 40
12
 49
6
 49
-6
  0
LTYPE
  2
long_dashed_dotted
 70
   64
  3
------------- --- --------------
 72
   65
 73
    4
 40
15.25
 49
12
 49
-1.5
 49
0.25
 49
-1.5
  0
LTYPE
  2
long_dashed_double-dotted
 70
   64
  3
----------- --- --- ------------
 72
   65
 73
    6
 40
17
 49
12
 49
-1.5
 49
0.25
 49
-1.5
 49
0.25
 49
-1.5
  0
LTYPE
  2
long_dashed_triplicate-dotted
 70
   64
  3
--------- --- --- --- ----------
 72
   65
 73
    8
 40
18.75
 49
12
 49
-1.5
 49
0.25
 49
-1.5
 49
0.25
 49
-1.5
 49
0.25
 49
-1.5
  0
LTYPE
  2
dotted
 70
   64
  3
   -       -       -       -    
 72
   65
 73
    2
 40
1.75
 49
0.25
 49
-1.5
  0
LTYPE
  2
chain
 70
   64
  3
-------------- -- --------------
 72
   65
 73
    4
 40
18.5
 49
12
 49
-1.5
 49
3.5
 49
-1.5
  0
LTYPE
  2
chain_double_dash
 70
   64
  3
------------ -- -- -------------
 72
   65
 73
    6
 40
23.5
 49
12
 49
-1.5
 49
3.5
 49
-1.5
 49
3.5
 49
-1.5
  0
LTYPE
  2
dashed_dotted
 70
   64
  3
-----------     -     ----------
 72
   65
 73
    4
 40
9.25
 49
6
 49
-1.5
 49
0.25
 49
-1.5
  0
LTYPE
  2
double-dashed_dotted
 70
   64
  3
------   -----------   -   -----
 72
   65
 73
    6
 40
16.75
 49
6
 49
-1.5
 49
6
 49
-1.5
 49
0.25
 49
-1.5
  0
LTYPE
  2
dashed_double-dotted
 70
   64
  3
---------    -    -    ---------
 72
   65
 73
    6
 40
11
 49
6
 49
-1.5
 49
0.25
 49
-1.5
 49
0.25
 49
-1.5
  0
LTYPE
  2
double-dashed_double-dotted
 70
   64
  3
-----   ---------   -   -   ----
 72
   65
 73
    8
 40
18.5
 49
6
 49
-1.5
 49
6
 49
-1.5
 49
0.25
 49
-1.5
 49
0.25
 49
-1.5
  0
LTYPE
  2
dashed_triplicate-dotted
 70
   64
  3
-------    -    -    -    ------
 72
   65
 73
    8
 40
12.75
 49
6
 49
-1.5
 49
0.25
 49
-1.5
 49
0.25
 49
-1.5
 49
0.25
 49
-1.5
  0
LTYPE
  2
double-dashed_triplicate-dotted
 70
   64
  3
-----  ---------  -  -  -  -----
 72
   65
 73
   10
 40
20.25
 49
6
 49
-1.5
 49
6
 49
-1.5
 49
0.25
 49
-1.5
 49
0.25
 49
-1.5
 49
0.25
 49
-1.5
  0
LTYPE
  2
undefined
 70
   64
  3
--------------------------------
 72
   65
 73
    0
 40
0
  0
LTYPE
  2
_
 70
   64
  3
                                
 72
   65
 73
    0
 40
0
  0
LTYPE
  2
__18
 70
   64
  3
                                
 72
   65
 73
    0
 40
0
  0
LTYPE
  2
__19
 70
   64
  3
                                
 72
   65
 73
    0
 40
0
  0
LTYPE
  2
__20
 70
   64
  3
                                
 72
   65
 73
    0
 40
0
  0
LTYPE
  2
__21
 70
   64
  3
                                
 72
   65
 73
    0
 40
0
  0
LTYPE
  2
__22
 70
   64
  3
                                
 72
   65
 73
    0
 40
0
  0
LTYPE
  2
__23
 70
   64
  3
                                
 72
   65
 73
    0
 40
0
  0
LTYPE
  2
__24
 70
   64
  3
                                
 72
   65
 73
    0
 40
0
  0
LTYPE
  2
__25
 70
   64
  3
                                
 72
   65
 73
    0
 40
0
  0
LTYPE
  2
__26
 70
   64
  3
                                
 72
   65
 73
    0
 40
0
  0
LTYPE
  2
__27
 70
   64
  3
                                
 72
   65
 73
    0
 40
0
  0
LTYPE
  2
__28
 70
   64
  3
                                
 72
   65
 73
    0
 40
0
  0
LTYPE
  2
__29
 70
   64
  3
                                
 72
   65
 73
    0
 40
0
  0
LTYPE
  2
__30
 70
   64
  3
                                
 72
   65
 73
    0
 40
0
  0
LTYPE
  2
__31
 70
   64
  3
                                
 72
   65
 73
    0
 40
0
  0
LTYPE
  2
__32
 70
   64
  3
                                
 72
   65
 73
    0
 40
0
  0
ENDTAB
  0
TABLE
  2
STYLE
  5
3
100
AcDbSymbolTable
 70
     1
  0
STYLE
  5
10
100
AcDbSymbolTableRecord
100
AcDbTextStyleTableRecord
  2
STANDARD
 70
     0
 40
0.0
 41
1.0
 50
0.0
 71
     0
 42
0.2
  3
txt
  4
bigfont.shx
  0
STYLE
  5
26
100
AcDbSymbolTableRecord
100
AcDbTextStyleTableRecord
  2
TATEGAKI
 70
    68
 40
0.0
 41
1.0
 50
0.0
 71
     0
 42
1.0
  3
txt
  4
bigfont.shx
  0
ENDTAB
  0
TABLE
  2
LAYER
 70
    2
  0
LAYER
  2
_0-0_
 70
   64
 62
    7
  6
CONTINUOUS
  0
LAYER
  2
ADD_LINE
 70
   64
 62
    7
  6
CONTINUOUS
  0
ENDTAB
  0
ENDSEC
  0
SECTION
  2
BLOCKS
  0
ENDSEC
  0
SECTION
  2
ENTITIES
  0
TEXT
  8
_0-0_
 62
    4
 10
918.54675646070837
 20
336.13148606434339
 40
12
 41
1
 50
0
  1
01-7
  0
TEXT
  8
_0-0_
 62
    4
 10
801.47872124629816
 20
351.56902916954033
 40
12
 41
1
 50
0
  1
株式会社　アウス
  0
LINE
  8
_0-0_
  6
CONTINUOUS
 62
    7
 10
849.10235709359404
 20
379.64481317700518
 11
949.10235709359404
 21
379.64481317700518
  0
LINE
  8
_0-0_
  6
CONTINUOUS
 62
    7
 10
849.10235709359404
 20
379.64481317700518
 11
949.10235709359404
 21
379.64481317700518
  0
LINE
  8
_0-0_
  6
CONTINUOUS
 62
    2
 10
641.43949044585986
 20
697.49459072038087
 11
658.82615531906322
 21
702.15333353222616
  0
LINE
  8
_0-0_
  6
CONTINUOUS
 62
    2
 10
641.43949044585986
 20
697.49459072038087
 11
658.82615531906322
 21
692.83584790853547
  0
LINE
  8
_0-0_
  6
CONTINUOUS
 62
    2
 10
787.43949044585986
 20
697.49459072038087
 11
770.05282557265673
 21
702.15333353222616
  0
LINE
  8
_0-0_
  6
CONTINUOUS
 62
    2
 10
787.43949044585986
 20
697.49459072038087
 11
770.05282557265673
 21
692.83584790853547
  0
LINE
  8
_0-0_
  6
CONTINUOUS
 62
    2
 10
641.43949044585986
 20
703.49459072038087
 11
641.43949044585986
 21
686.64939077988288
  0
LINE
  8
_0-0_
  6
CONTINUOUS
 62
    2
 10
787.43949044585986
 20
703.49459072038087
 11
787.43949044585986
 21
686.64939077988288
  0
LINE
  8
_0-0_
  6
CONTINUOUS
 62
    2
 10
636.93949044585986
 20
591.67360488352188
 11
654.32615531906322
 21
596.33234769536728
  0
LINE
  8
_0-0_
  6
CONTINUOUS
 62
    2
 10
636.93949044585986
 20
591.67360488352188
 11
654.32615531906322
 21
587.01486207167659
  0
LINE
  8
_0-0_
  6
CONTINUOUS
 62
    2
 10
791.93949044585986
 20
591.67360488352188
 11
774.55282557265673
 21
596.33234769536728
  0
LINE
  8
_0-0_
  6
CONTINUOUS
 62
    2
 10
791.93949044585986
 20
591.67360488352188
 11
774.55282557265673
 21
587.01486207167659
  0
LINE
  8
_0-0_
  6
CONTINUOUS
 62
    2
 10
636.93949044585986
 20
585.67360488352188
 11
636.93949044585986
 21
612.99696393087333
  0
LINE
  8
_0-0_
  6
CONTINUOUS
 62
    2
 10
791.93949044585986
 20
585.67360488352188
 11
791.93949044585986
 21
612.99696393087333
  0
LINE
  8
_0-0_
  6
CONTINUOUS
 62
    2
 10
626.43949044585986
 20
754.60879183395389
 11
643.82615531906322
 21
759.26753464579929
  0
LINE
  8
_0-0_
  6
CONTINUOUS
 62
    2
 10
626.43949044585986
 20
754.60879183395389
 11
643.82615531906322
 21
749.9500490221086
  0
LINE
  8
_0-0_
  6
CONTINUOUS
 62
    2
 10
802.43949044585986
 20
754.60879183395389
 11
785.05282557265673
 21
759.26753464579929
  0
LINE
  8
_0-0_
  6
CONTINUOUS
 62
    2
 10
802.43949044585986
 20
754.60879183395389
 11
785.05282557265673
 21
749.9500490221086
  0
LINE
  8
_0-0_
  6
CONTINUOUS
 62
    2
 10
626.43949044585986
 20
760.60879183395389
 11
626.43949044585986
 21
711.3609552192795
  0
LINE
  8
_0-0_
  6
CONTINUOUS
 62
    2
 10
802.43949044585986
 20
760.60879183395389
 11
802.43949044585986
 21
711.3609552192795
  0
LINE
  8
_0-0_
  6
CONTINUOUS
 62
    7
 10
614.43949044585986
 20
809.56460631668915
 11
814.43949044585986
 21
809.56460631668915
  0
ARC
  8
_0-0_
  6
CONTINUOUS
 62
    7
 10
714.43949044585997
 20
809.56460631668915
 40
73
 50
0
 51
180
  0
ARC
  8
_0-0_
  6
CONTINUOUS
 62
    7
 10
714.43949044585997
 20
809.56460631668915
 40
88
 50
0
 51
180
  0
LINE
  8
_0-0_
  6
CONTINUOUS
 62
    7
 10
644.43949044586009
 20
830.27692149389782
 11
644.43949044586009
 21
809.56460631668915
  0
LINE
  8
_0-0_
  6
CONTINUOUS
 62
    7
 10
648.43949044586009
 20
840.75755423765406
 11
648.43949044586009
 21
809.56460631668915
  0
LINE
  8
_0-0_
  6
CONTINUOUS
 62
    7
 10
784.43949044585997
 20
830.27692149389679
 11
784.43949044585997
 21
809.56460631668915
  0
LINE
  8
_0-0_
  6
CONTINUOUS
 62
    7
 10
780.43949044585997
 20
840.75755423765338
 11
780.43949044585997
 21
809.56460631668915
  0
LINE
  8
_0-0_
  6
CONTINUOUS
 62
    7
 10
776.43949044585997
 20
848.10030405268458
 11
776.43949044585997
 21
809.56460631668915
  0
LINE
  8
_0-0_
  6
CONTINUOUS
 62
    7
 10
772.43949044585997
 20
853.89292683529209
 11
772.43949044585997
 21
809.56460631668915
  0
LINE
  8
_0-0_
  6
CONTINUOUS
 62
    7
 10
768.43949044585997
 20
858.68690267994975
 11
768.43949044585997
 21
809.56460631668915
  0
LINE
  8
_0-0_
  6
CONTINUOUS
 62
    7
 10
764.43949044585997
 20
862.75295090457792
 11
764.43949044585997
 21
809.56460631668915
  0
LINE
  8
_0-0_
  6
CONTINUOUS
 62
    7
 10
760.43949044585997
 20
866.24793719976287
 11
760.43949044585997
 21
809.56460631668915
  0
LINE
  8
_0-0_
  6
CONTINUOUS
 62
    7
 10
756.43949044585997
 20
869.27222727080186
 11
756.43949044585997
 21
809.56460631668915
  0
LINE
  8
_0-0_
  6
CONTINUOUS
 62
    7
 10
752.43949044585997
 20
871.8943744856789
 11
752.43949044585997
 21
809.56460631668915
  0
LINE
  8
_0-0_
  6
CONTINUOUS
 62
    7
 10
748.43949044585997
 20
874.163367914726
 11
748.43949044585997
 21
809.56460631668915
  0
LINE
  8
_0-0_
  6
CONTINUOUS
 62
    7
 10
744.43949044585997
 20
876.11533884458868
 11
744.43949044585997
 21
809.56460631668915
  0
LINE
  8
_0-0_
  6
CONTINUOUS
 62
    7
 10
740.43949044585986
 20
877.77750832210177
 11
740.43949044585986
 21
809.56460631668915
  0
LINE
  8
_0-0_
  6
CONTINUOUS
 62
    7
 10
736.43949044585986
 20
879.17064053786874
 11
736.43949044585986
 21
809.56460631668915
  0
LINE
  8
_0-0_
  6
CONTINUOUS
 62
    7
 10
732.43949044585997
 20
880.31063093998523
 11
732.43949044585997
 21
809.56460631668915
  0
LINE
  8
_0-0_
  6
CONTINUOUS
 62
    7
 10
728.43949044585986
 20
881.20956426908117
 11
728.43949044585986
 21
809.56460631668915
  0
LINE
  8
_0-0_
  6
CONTINUOUS
 62
    7
 10
724.43949044585986
 20
881.87643107585291
 11
724.43949044585986
 21
809.56460631668915
  0
LINE
  8
_0-0_
  6
CONTINUOUS
 62
    7
 10
720.43949044585997
 20
882.31761312740468
 11
720.43949044585997
 21
809.56460631668915
  0
LINE
  8
_0-0_
  6
CONTINUOUS
 62
    7
 10
716.43949044585986
 20
882.53720391332149
 11
716.43949044585986
 21
809.56460631668915
  0
LINE
  8
_0-0_
  6
CONTINUOUS
 62
    7
 10
712.43949044585986
 20
882.53720391332149
 11
712.43949044585986
 21
809.56460631668915
  0
LINE
  8
_0-0_
  6
CONTINUOUS
 62
    7
 10
708.43949044585997
 20
882.31761312740468
 11
708.43949044585997
 21
809.56460631668915
  0
LINE
  8
_0-0_
  6
CONTINUOUS
 62
    7
 10
704.43949044585986
 20
881.87643107585291
 11
704.43949044585986
 21
809.56460631668915
  0
LINE
  8
_0-0_
  6
CONTINUOUS
 62
    7
 10
700.43949044585986
 20
881.20956426908117
 11
700.43949044585986
 21
809.56460631668915
  0
LINE
  8
_0-0_
  6
CONTINUOUS
 62
    7
 10
696.43949044585997
 20
880.31063093998523
 11
696.43949044585997
 21
809.56460631668915
  0
LINE
  8
_0-0_
  6
CONTINUOUS
 62
    7
 10
692.43949044585986
 20
879.17064053786874
 11
692.43949044585986
 21
809.56460631668915
  0
LINE
  8
_0-0_
  6
CONTINUOUS
 62
    7
 10
688.43949044585986
 20
877.77750832210177
 11
688.43949044585986
 21
809.56460631668915
  0
LINE
  8
_0-0_
  6
CONTINUOUS
 62
    7
 10
684.43949044585997
 20
876.11533884458868
 11
684.43949044585997
 21
809.56460631668915
  0
LINE
  8
_0-0_
  6
CONTINUOUS
 62
    7
 10
680.43949044585997
 20
874.16336791472622
 11
680.43949044585997
 21
809.56460631668915
  0
LINE
  8
_0-0_
  6
CONTINUOUS
 62
    7
 10
676.43949044585997
 20
871.8943744856789
 11
676.43949044585997
 21
809.56460631668915
  0
LINE
  8
_0-0_
  6
CONTINUOUS
 62
    7
 10
672.43949044585997
 20
869.27222727080198
 11
672.43949044585997
 21
809.56460631668915
  0
LINE
  8
_0-0_
  6
CONTINUOUS
 62
    7
 10
668.43949044585997
 20
866.24793719976299
 11
668.43949044585997
 21
809.56460631668915
  0
LINE
  8
_0-0_
  6
CONTINUOUS
 62
    7
 10
664.43949044585997
 20
862.75295090457826
 11
664.43949044585997
 21
809.56460631668915
  0
LINE
  8
_0-0_
  6
CONTINUOUS
 62
    7
 10
660.43949044585997
 20
858.68690267994987
 11
660.43949044585997
 21
809.56460631668915
  0
LINE
  8
_0-0_
  6
CONTINUOUS
 62
    7
 10
656.43949044585997
 20
853.89292683529243
 11
656.43949044585997
 21
809.56460631668915
  0
LINE
  8
_0-0_
  6
CONTINUOUS
 62
    7
 10
652.43949044585997
 20
848.10030405268481
 11
652.43949044585997
 21
809.56460631668915
  0
LINE
  8
_0-0_
  6
CONTINUOUS
 62
    7
 10
702.3978958670665
 20
881.56460631668904
 11
726.48108502465334
 21
881.56460631668904
  0
LINE
  8
_0-0_
  6
CONTINUOUS
 62
    7
 10
687.8876543511559
 20
877.56460631668915
 11
740.99132654056382
 21
877.56460631668915
  0
LINE
  8
_0-0_
  6
CONTINUOUS
 62
    7
 10
679.3253907137007
 20
873.56460631668915
 11
749.55359017801902
 21
873.56460631668915
  0
LINE
  8
_0-0_
  6
CONTINUOUS
 62
    7
 10
672.85824467327598
 20
869.56460631668904
 11
756.02073621844363
 21
869.56460631668904
  0
LINE
  8
_0-0_
  6
CONTINUOUS
 62
    7
 10
667.61001254998735
 20
865.56460631668915
 11
761.26896834173249
 21
865.56460631668915
  0
LINE
  8
_0-0_
  6
CONTINUOUS
 62
    7
 10
663.20473661606172
 20
861.56460631668915
 11
765.674244275658
 21
861.56460631668915
  0
LINE
  8
_0-0_
  6
CONTINUOUS
 62
    7
 10
659.43949044585975
 20
857.56460631668915
 11
769.43949044585997
 21
857.56460631668915
  0
LINE
  8
_0-0_
  6
CONTINUOUS
 62
    7
 10
656.19002692901699
 20
853.56460631668926
 11
772.68895396270273
 21
853.56460631668926
  0
LINE
  8
_0-0_
  6
CONTINUOUS
 62
    7
 10
653.37395188277173
 20
849.56460631668915
 11
775.50502900894799
 21
849.56460631668915
  0
LINE
  8
_0-0_
  6
CONTINUOUS
 62
    7
 10
650.93358520863012
 20
845.56460631668915
 11
777.9453956830896
 21
845.56460631668915
  0
LINE
  8
_0-0_
  6
CONTINUOUS
 62
    7
 10
648.82699163656287
 20
841.56460631668926
 11
780.05198925515697
 21
841.56460631668926
  0
LINE
  8
_0-0_
  6
CONTINUOUS
 62
    7
 10
647.02287528312718
 20
837.56460631668915
 11
781.85610560859254
 21
837.56460631668915
  0
LINE
  8
_0-0_
  6
CONTINUOUS
 62
    7
 10
645.4974858332871
 20
833.56460631668915
 11
783.38149505843262
 21
833.56460631668915
  0
LINE
  8
_0-0_
  6
CONTINUOUS
 62
    7
 10
644.23265317198752
 20
829.56460631668926
 11
784.6463277197322
 21
829.56460631668926
  0
LINE
  8
_0-0_
  6
CONTINUOUS
 62
    7
 10
643.21449483336437
 20
825.56460631668938
 11
785.66448605835535
 21
825.56460631668938
  0
LINE
  8
_0-0_
  6
CONTINUOUS
 62
    7
 10
642.43254633628112
 20
821.56460631668938
 11
786.4464345554386
 21
821.56460631668938
  0
LINE
  8
_0-0_
  6
CONTINUOUS
 62
    7
 10
641.87917071117295
 20
817.56460631668926
 11
786.99981018054677
 21
817.56460631668926
  0
LINE
  8
_0-0_
  6
CONTINUOUS
 62
    7
 10
641.54916186929222
 20
813.56460631668938
 11
787.3298190224275
 21
813.56460631668938
  0
LINE
  8
_0-0_
  6
CONTINUOUS
 62
    7
 10
626.43949044585986
 20
666.44821290924585
 11
802.43949044585986
 21
666.44821290924585
  0
LINE
  8
_0-0_
  6
CONTINUOUS
 62
    7
 10
626.43949044585986
 20
678.44821290924585
 11
626.43949044585986
 21
666.44821290924585
  0
LINE
  8
_0-0_
  6
CONTINUOUS
 62
    7
 10
626.43949044585986
 20
678.44821290924585
 11
802.43949044585986
 21
678.44821290924585
  0
LINE
  8
_0-0_
  6
CONTINUOUS
 62
    7
 10
802.43949044585986
 20
678.44821290924585
 11
802.43949044585986
 21
666.44821290924585
  0
LINE
  8
_0-0_
  6
CONTINUOUS
 62
    7
 10
641.43949044585986
 20
673.44821290924574
 11
787.43949044585986
 21
673.44821290924574
  0
LINE
  8
_0-0_
  6
CONTINUOUS
 62
    7
 10
641.43949044585986
 20
671.44821290924585
 11
787.43949044585986
 21
671.44821290924585
  0
LINE
  8
_0-0_
  6
CONTINUOUS
 62
    7
 10
787.43949044585986
 20
673.44821290924574
 11
787.43949044585986
 21
671.44821290924585
  0
LINE
  8
_0-0_
  6
CONTINUOUS
 62
    7
 10
784.43949044585997
 20
673.44821290924574
 11
784.43949044585997
 21
671.44821290924585
  0
LINE
  8
_0-0_
  6
CONTINUOUS
 62
    7
 10
780.43949044585997
 20
673.44821290924574
 11
780.43949044585997
 21
671.44821290924585
  0
LINE
  8
_0-0_
  6
CONTINUOUS
 62
    7
 10
776.43949044585997
 20
673.44821290924574
 11
776.43949044585997
 21
671.44821290924585
  0
LINE
  8
_0-0_
  6
CONTINUOUS
 62
    7
 10
772.43949044585997
 20
673.44821290924574
 11
772.43949044585997
 21
671.44821290924585
  0
LINE
  8
_0-0_
  6
CONTINUOUS
 62
    7
 10
768.43949044585997
 20
673.44821290924574
 11
768.43949044585997
 21
671.44821290924585
  0
LINE
  8
_0-0_
  6
CONTINUOUS
 62
    7
 10
764.43949044585997
 20
673.44821290924574
 11
764.43949044585997
 21
671.44821290924585
  0
LINE
  8
_0-0_
  6
CONTINUOUS
 62
    7
 10
760.43949044585997
 20
673.44821290924574
 11
760.43949044585997
 21
671.44821290924585
  0
LINE
  8
_0-0_
  6
CONTINUOUS
 62
    7
 10
756.43949044585997
 20
673.44821290924574
 11
756.43949044585997
 21
671.44821290924585
  0
LINE
  8
_0-0_
  6
CONTINUOUS
 62
    7
 10
752.43949044585997
 20
673.44821290924574
 11
752.43949044585997
 21
671.44821290924585
  0
LINE
  8
_0-0_
  6
CONTINUOUS
 62
    7
 10
748.43949044585997
 20
673.44821290924574
 11
748.43949044585997
 21
671.44821290924585
  0
LINE
  8
_0-0_
  6
CONTINUOUS
 62
    7
 10
744.43949044585997
 20
673.44821290924574
 11
744.43949044585997
 21
671.44821290924585
  0
LINE
  8
_0-0_
  6
CONTINUOUS
 62
    7
 10
740.43949044585986
 20
673.44821290924574
 11
740.43949044585986
 21
671.44821290924585
  0
LINE
  8
_0-0_
  6
CONTINUOUS
 62
    7
 10
736.43949044585986
 20
673.44821290924574
 11
736.43949044585986
 21
671.44821290924585
  0
LINE
  8
_0-0_
  6
CONTINUOUS
 62
    7
 10
732.43949044585997
 20
673.44821290924574
 11
732.43949044585997
 21
671.44821290924585
  0
LINE
  8
_0-0_
  6
CONTINUOUS
 62
    7
 10
728.43949044585986
 20
673.44821290924574
 11
728.43949044585986
 21
671.44821290924585
  0
LINE
  8
_0-0_
  6
CONTINUOUS
 62
    7
 10
724.43949044585986
 20
673.44821290924574
 11
724.43949044585986
 21
671.44821290924585
  0
LINE
  8
_0-0_
  6
CONTINUOUS
 62
    7
 10
720.43949044585997
 20
673.44821290924574
 11
720.43949044585997
 21
671.44821290924585
  0
LINE
  8
_0-0_
  6
CONTINUOUS
 62
    7
 10
716.43949044585986
 20
673.44821290924574
 11
716.43949044585986
 21
671.44821290924585
  0
LINE
  8
_0-0_
  6
CONTINUOUS
 62
    7
 10
712.43949044585986
 20
673.44821290924574
 11
712.43949044585986
 21
671.44821290924585
  0
LINE
  8
_0-0_
  6
CONTINUOUS
 62
    7
 10
708.43949044585997
 20
673.44821290924574
 11
708.43949044585997
 21
671.44821290924585
  0
LINE
  8
_0-0_
  6
CONTINUOUS
 62
    7
 10
704.43949044585986
 20
673.44821290924574
 11
704.43949044585986
 21
671.44821290924585
  0
LINE
  8
_0-0_
  6
CONTINUOUS
 62
    7
 10
700.43949044585986
 20
673.44821290924574
 11
700.43949044585986
 21
671.44821290924585
  0
LINE
  8
_0-0_
  6
CONTINUOUS
 62
    7
 10
696.43949044585997
 20
673.44821290924574
 11
696.43949044585997
 21
671.44821290924585
  0
LINE
  8
_0-0_
  6
CONTINUOUS
 62
    7
 10
692.43949044585986
 20
673.44821290924574
 11
692.43949044585986
 21
671.44821290924585
  0
LINE
  8
_0-0_
  6
CONTINUOUS
 62
    7
 10
688.43949044585986
 20
673.44821290924574
 11
688.43949044585986
 21
671.44821290924585
  0
LINE
  8
_0-0_
  6
CONTINUOUS
 62
    7
 10
684.43949044585997
 20
673.44821290924574
 11
684.43949044585997
 21
671.44821290924585
  0
LINE
  8
_0-0_
  6
CONTINUOUS
 62
    7
 10
680.43949044585997
 20
673.44821290924574
 11
680.43949044585997
 21
671.44821290924585
  0
LINE
  8
_0-0_
  6
CONTINUOUS
 62
    7
 10
676.43949044585997
 20
673.44821290924574
 11
676.43949044585997
 21
671.44821290924585
  0
LINE
  8
_0-0_
  6
CONTINUOUS
 62
    7
 10
672.43949044585997
 20
673.44821290924574
 11
672.43949044585997
 21
671.44821290924585
  0
LINE
  8
_0-0_
  6
CONTINUOUS
 62
    7
 10
668.43949044585997
 20
673.44821290924574
 11
668.43949044585997
 21
671.44821290924585
  0
LINE
  8
_0-0_
  6
CONTINUOUS
 62
    7
 10
664.43949044585997
 20
673.44821290924574
 11
664.43949044585997
 21
671.44821290924585
  0
LINE
  8
_0-0_
  6
CONTINUOUS
 62
    7
 10
660.43949044585997
 20
673.44821290924574
 11
660.43949044585997
 21
671.44821290924585
  0
LINE
  8
_0-0_
  6
CONTINUOUS
 62
    7
 10
656.43949044585997
 20
673.44821290924574
 11
656.43949044585997
 21
671.44821290924585
  0
LINE
  8
_0-0_
  6
CONTINUOUS
 62
    7
 10
652.43949044585997
 20
673.44821290924574
 11
652.43949044585997
 21
671.44821290924585
  0
LINE
  8
_0-0_
  6
CONTINUOUS
 62
    7
 10
648.43949044586009
 20
673.44821290924574
 11
648.43949044586009
 21
671.44821290924585
  0
LINE
  8
_0-0_
  6
CONTINUOUS
 62
    7
 10
644.43949044586009
 20
673.44821290924574
 11
644.43949044586009
 21
671.44821290924585
  0
LINE
  8
_0-0_
  6
CONTINUOUS
 62
    7
 10
641.43949044585986
 20
673.44821290924574
 11
641.43949044585986
 21
671.4569633257637
  0
LINE
  8
_0-0_
  6
CONTINUOUS
 62
    7
 10
788.53949044585988
 20
666.44821290924585
 11
788.53949044585988
 21
628.44821290924574
  0
LINE
  8
_0-0_
  6
CONTINUOUS
 62
    7
 10
791.93949044585986
 20
666.44821290924585
 11
791.93949044585986
 21
628.44821290924574
  0
LINE
  8
_0-0_
  6
CONTINUOUS
 62
    7
 10
640.33949044585995
 20
666.44821290924585
 11
640.33949044585995
 21
628.44821290924574
  0
LINE
  8
_0-0_
  6
CONTINUOUS
 62
    7
 10
636.93949044585986
 20
666.44821290924585
 11
636.93949044585986
 21
628.44821290924574
  0
LINE
  8
_0-0_
  6
CONTINUOUS
 62
    7
 10
636.93949044585986
 20
628.44821290924574
 11
791.93949044585986
 21
628.44821290924574
  0
LINE
  8
_0-0_
  6
CENTER2
 62
    7
 10
714.43949044585997
 20
693.74048304867006
 11
714.43949044585997
 21
623.79942841422621
  0
LINE
  8
_0-0_
  6
CONTINUOUS
 62
    2
 10
591.26557439646012
 20
678.44821290924585
 11
586.60683158461484
 21
695.83487778244898
  0
LINE
  8
_0-0_
  6
CONTINUOUS
 62
    2
 10
591.26557439646012
 20
678.44821290924585
 11
595.92431720830541
 21
695.83487778244898
  0
LINE
  8
_0-0_
  6
CONTINUOUS
 62
    2
 10
591.26557439646012
 20
628.44821290924574
 11
586.60683158461484
 21
611.06154803604261
  0
LINE
  8
_0-0_
  6
CONTINUOUS
 62
    2
 10
591.26557439646012
 20
628.44821290924574
 11
595.92431720830541
 21
611.06154803604261
  0
LINE
  8
_0-0_
  6
CONTINUOUS
 62
    2
 10
585.26557439646012
 20
678.44821290924585
 11
620.47199190396054
 21
678.44821290924585
  0
LINE
  8
_0-0_
  6
CONTINUOUS
 62
    2
 10
585.26557439646012
 20
628.44821290924574
 11
620.47199190396054
 21
628.44821290924574
  0
LINE
  8
_0-0_
  6
CENTER2
 62
    7
 10
714.43949044585997
 20
908.6386249878301
 11
714.43949044585997
 21
798.89798776476562
  0
LINE
  8
_0-0_
  6
CONTINUOUS
 62
    2
 10
851.56669485991301
 20
678.44821290924585
 11
846.90795204806761
 21
695.83487778244898
  0
LINE
  8
_0-0_
  6
CONTINUOUS
 62
    2
 10
851.56669485991301
 20
678.44821290924585
 11
856.22543767175841
 21
695.83487778244898
  0
LINE
  8
_0-0_
  6
CONTINUOUS
 62
    2
 10
851.56669485991301
 20
666.44821290924585
 11
846.90795204806761
 21
649.06154803604261
  0
LINE
  8
_0-0_
  6
CONTINUOUS
 62
    2
 10
851.56669485991301
 20
666.44821290924585
 11
856.22543767175841
 21
649.06154803604261
  0
LINE
  8
_0-0_
  6
CONTINUOUS
 62
    2
 10
857.56669485991301
 20
678.44821290924585
 11
814.47617131364632
 21
678.44821290924585
  0
LINE
  8
_0-0_
  6
CONTINUOUS
 62
    2
 10
857.56669485991301
 20
666.44821290924585
 11
814.47617131364632
 21
666.44821290924585
  0
LINE
  8
_0-0_
  6
CONTINUOUS
 62
    7
 10
646.97851738273607
 20
489.84707625800138
 11
646.97851738273607
 21
444.67238476993316
  0
LINE
  8
_0-0_
  6
CONTINUOUS
 62
    7
 10
586.97851738273607
 20
489.67238476993316
 11
586.97851738273607
 21
444.67238476993316
  0
LINE
  8
_0-0_
  6
CONTINUOUS
 62
    7
 10
526.97851738273607
 20
489.67238476993316
 11
526.97851738273607
 21
444.67238476993316
  0
LINE
  8
_0-0_
  6
CONTINUOUS
 62
    7
 10
706.97851738273607
 20
489.67238476993316
 11
706.97851738273607
 21
444.67238476993316
  0
LINE
  8
_0-0_
  6
CONTINUOUS
 62
    7
 10
506.68652083952526
 20
444.67238476993316
 11
706.97851738273607
 21
444.67238476993316
  0
LINE
  8
_0-0_
  6
CONTINUOUS
 62
    7
 10
506.97851738273607
 20
459.67238476993316
 11
706.97851738273607
 21
459.67238476993316
  0
LINE
  8
_0-0_
  6
CONTINUOUS
 62
    7
 10
506.97851738273607
 20
474.67238476993316
 11
706.97851738273607
 21
474.67238476993316
  0
LINE
  8
_0-0_
  6
CONTINUOUS
 62
    7
 10
506.97851738273607
 20
489.67238476993316
 11
706.97851738273607
 21
489.67238476993316
  0
LINE
  8
_0-0_
  6
CONTINUOUS
 62
    7
 10
506.97851738273607
 20
465.70993865135756
 11
506.97851738273607
 21
444.67238476993316
  0
TEXT
  8
_0-0_
 62
    4
 10
511.440655976936
 20
461.15389247800567
 40
12
 41
1
 50
0
  1
１
  0
TEXT
  8
_0-0_
 62
    4
 10
511.83683390505354
 20
446.09913120953848
 40
12
 41
1
 50
0
  1
２
  0
TEXT
  8
_0-0_
 62
    4
 10
510.45021115664201
 20
475.81247581835532
 40
12
 41
1
 50
0
  1
NO,
  0
TEXT
  8
_0-0_
 62
    4
 10
537.39031026863597
 20
476.01056478241401
 40
12
 41
1
 50
0
  1
部品名
  0
TEXT
  8
_0-0_
 62
    4
 10
596.42082155815183
 20
475.41629789023773
 40
12
 41
1
 50
0
  1
材　質
  0
TEXT
  8
_0-0_
 62
    4
 10
657.82840041637314
 20
476.01056478241401
 40
12
 41
1
 50
0
  1
備　考
  0
TEXT
  8
_0-0_
 62
    4
 10
656.63986663202047
 20
460.95580351394693
 40
12
 41
1
 50
0
  1
16ﾒｯｼｭ
  0
TEXT
  8
_0-0_
 62
    4
 10
597.60935534250461
 20
460.95580351394693
 40
12
 41
1
 50
0
  1
サラン
  0
TEXT
  8
_0-0_
 62
    4
 10
598.40171119873969
 20
446.09913120953848
 40
12
 41
1
 50
0
  1
ＡＢＳ
  0
TEXT
  8
_0-0_
 62
    4
 10
542.54062333416414
 20
461.15389247800567
 40
12
 41
1
 50
0
  1
アミ
  0
TEXT
  8
_0-0_
 62
    4
 10
542.14444540604666
 20
446.69339810171488
 40
12
 41
1
 50
0
  1
本体
  0
TEXT
  8
_0-0_
 62
    4
 10
507.0826987676428
 20
492.25385983523392
 40
12
 41
1
 50
0
  1
■　部品構成表
  0
LINE
  8
_0-0_
  6
CONTINUOUS
 62
    7
 10
484.4680920118463
 20
996.81853219197535
 11
949.10235709359404
 21
996.81853219197535
  0
LINE
  8
_0-0_
  6
CONTINUOUS
 62
    7
 10
484.4680920118463
 20
349.64481317700518
 11
949.10235709359404
 21
349.64481317700518
  0
LINE
  8
_0-0_
  6
CONTINUOUS
 62
    7
 10
484.4680920118463
 20
996.81853219197535
 11
484.4680920118463
 21
349.64481317700518
  0
LINE
  8
_0-0_
  6
CONTINUOUS
 62
    7
 10
949.10235709359404
 20
996.81853219197535
 11
949.10235709359404
 21
349.64481317700518
  0
LINE
  8
_0-0_
  6
CONTINUOUS
 62
    7
 10
506.97851738273607
 20
489.67238476993316
 11
506.97851738273607
 21
464.67380997458287
  0
TEXT
  8
_0-0_
 62
    4
 10
875.26765606472281
 20
666.03622942366462
 40
12
 41
1
 50
90
  1
12
  0
LINE
  8
_0-0_
  6
CONTINUOUS
 62
    7
 10
851.56669485991301
 20
678.44821290924585
 11
851.56669485991301
 21
714.31011949686774
  0
LINE
  8
_0-0_
  6
CONTINUOUS
 62
    7
 10
851.59192653837488
 20
682.94746479962748
 11
851.59192653837488
 21
630.98385064439617
  0
LINE
  8
_0-0_
  6
CONTINUOUS
 62
    7
 10
636.93949044585986
 20
591.67360488352188
 11
791.93949044585986
 21
591.67360488352188
  0
TEXT
  8
_0-0_
 62
    4
 10
696.27719544960769
 20
596.93778992465468
 40
12
 41
1
 50
0
  1
１５５
  0
TEXT
  8
_0-0_
 62
    4
 10
579.36673420507236
 20
641.29673390445305
 40
12
 41
1
 50
90
  1
５０
  0
LINE
  8
_0-0_
  6
CONTINUOUS
 62
    7
 10
591.26557439646012
 20
715.42545806624935
 11
591.26557439646012
 21
596.74063906252218
  0
TEXT
  8
_0-0_
 62
    4
 10
700.61451441652127
 20
703.59640633830315
 40
12
 41
1
 50
0
  1
１４６
  0
LINE
  8
_0-0_
  6
CONTINUOUS
 62
    7
 10
626.43949044585986
 20
754.60879183395389
 11
802.43949044585986
 21
754.60879183395389
  0
LINE
  8
_0-0_
  6
CONTINUOUS
 62
    7
 10
641.43949044585986
 20
697.49459072038087
 11
787.43949044585986
 21
697.49459072038087
  0
LINE
  8
_0-0_
  6
CONTINUOUS
 62
    7
 10
791.93949044585986
 20
567.99261101314687
 11
817.5312543509333
 21
567.99261101314687
  0
LINE
  8
_0-0_
  6
CONTINUOUS
 62
    7
 10
788.53949044585988
 20
567.99261101314687
 11
771.15282557265664
 21
563.33386820130147
  0
LINE
  8
_0-0_
  6
CONTINUOUS
 62
    7
 10
788.53949044585988
 20
567.99261101314687
 11
771.15282557265664
 21
572.65135382499227
  0
LINE
  8
_0-0_
  6
CONTINUOUS
 62
    7
 10
791.93949044585986
 20
567.99261101314687
 11
809.32615531906299
 21
572.65135382499227
  0
LINE
  8
_0-0_
  6
CONTINUOUS
 62
    7
 10
791.93949044585986
 20
567.99261101314687
 11
809.32615531906299
 21
563.33386820130147
  0
LINE
  8
_0-0_
  6
CONTINUOUS
 62
    7
 10
758.81713241607781
 20
567.99261101314687
 11
791.93949044585986
 21
567.99261101314687
  0
LINE
  8
_0-0_
  6
CONTINUOUS
 62
    2
 10
788.53949044585988
 20
557.20188516586325
 11
788.53949044585988
 21
621.30977551081082
  0
LINE
  8
_0-0_
  6
CONTINUOUS
 62
    2
 10
791.93949044585986
 20
557.20188516586325
 11
791.93949044585986
 21
621.41466844420597
  0
LINE
  8
_0-0_
  6
CONTINUOUS
 62
    2
 10
791.93949044585986
 20
557.20188516586325
 11
791.93949044585986
 21
621.30977551081082
  0
TEXT
  8
_0-0_
 62
    4
 10
781.2505923607564
 20
543.06930171620138
 40
12
 41
1
 50
0
  1
3.4
  0
TEXT
  8
_0-0_
 62
    7
 10
501.14523915777511
 20
940.18499736297622
 40
18
 41
1
 50
0
  1
Ｄ－３ＢＡ－ＶＵ
  0
TEXT
  8
_0-0_
 62
    4
 10
502.18463223660189
 20
964.78396689520878
 40
15
 41
1
 50
0
  1
サランネット防虫目皿
  0
TEXT
  8
_0-0_
 62
    4
 10
500.10584607894839
 20
915.9324921903526
 40
15
 41
1
 50
0
  1
１５０Ａ　ＶＵ専用
  0
TEXT
  8
_0-0_
 62
    4
 10
693.77942310032859
 20
761.40938780477904
 40
15
 41
1
 50
0
  1
１７６
  0
TEXT
  8
_0-0_
 62
    7
 10
513.82671013961181
 20
434.31658502873046
 40
6
 41
1
 50
0
  1
●アミは塩素ガスに強いサラン
  0
TEXT
  8
_0-0_
 62
    7
 10
513.67760011395762
 20
417.9144822067621
 40
6
 41
1
 50
0
  1
●本体はABS製
  0
TEXT
  8
_0-0_
 62
    7
 10
513.67760011395762
 20
426.41375366905481
 40
6
 41
1
 50
0
  1
●給水タンクに最適
  0
LINE
  8
_0-0_
  6
CONTINUOUS
 62
    7
 10
749.10235709359404
 20
409.64481317700518
 11
949.10235709359404
 21
409.64481317700518
  0
LINE
  8
_0-0_
  6
CONTINUOUS
 62
    7
 10
749.10235709359404
 20
424.64481317700518
 11
949.10235709359404
 21
424.64481317700518
  0
TEXT
  8
_0-0_
 62
    4
 10
770.81804535680965
 20
411.17509838127302
 40
12
 41
1
 50
0
  1
製品番号
  0
TEXT
  8
_0-0_
 62
    4
 10
851.22191569637721
 20
411.17509838127302
 40
12
 41
1
 50
0
  1
Ｄ－３ＢＡ－ＶＵ
  0
TEXT
  8
_0-0_
 62
    4
 10
767.38748022232141
 20
396.16637591788708
 40
12
 41
1
 50
0
  1
製　品　名
  0
TEXT
  8
_0-0_
 62
    4
 10
873.09176842873956
 20
380.94324313359567
 40
12
 41
1
 50
0
  1
１５０Ａ
  0
LINE
  8
_0-0_
  6
CONTINUOUS
 62
    7
 10
849.10235709359404
 20
399.64481317700518
 11
849.10235709359404
 21
364.64481317700518
  0
LINE
  8
_0-0_
  6
CONTINUOUS
 62
    7
 10
749.10235709359404
 20
394.64481317700518
 11
949.10235709359404
 21
394.64481317700518
  0
LINE
  8
_0-0_
  6
CONTINUOUS
 62
    7
 10
749.10235709359404
 20
379.64481317700518
 11
949.10235709359404
 21
379.64481317700518
  0
LINE
  8
_0-0_
  6
CONTINUOUS
 62
    7
 10
749.10235709359404
 20
364.64481317700518
 11
949.10235709359404
 21
364.64481317700518
  0
LINE
  8
_0-0_
  6
CONTINUOUS
 62
    7
 10
749.10235709359404
 20
424.64481317700518
 11
749.10235709359404
 21
349.64481317700518
  0
LINE
  8
_0-0_
  6
CONTINUOUS
 62
    7
 10
849.10235709359404
 20
424.64481317700518
 11
849.10235709359404
 21
364.64481317700518
  0
TEXT
  8
_0-0_
 62
    4
 10
767.61920175623504
 20
382.71067641764756
 40
12
 41
1
 50
0
  1
サ　イ　ズ
  0
TEXT
  8
_0-0_
 62
    4
 10
758.96798778493394
 20
369.25323246229016
 40
6
 41
1.2
 50
0
  1
製作日　令和元年5月28日
  0
TEXT
  8
_0-0_
 62
    4
 10
864.21712815780586
 20
365.89257867316093
 40
12
 41
1
 50
0
  1
製作者　伊東
  0
TEXT
  8
_0-0_
 62
    7
 10
853.43589388901887
 20
399.24702219222002
 40
6
 41
1.7
 50
0
  1
サランネット防虫網
  0
ENDSEC
  0
EOF
